Аккорды «Default»

Default
Default — канадская рок-группа, образовавшаяся в 1999 году в Ванкувер, Канада, стараниями гитариста Джереми Хора и ударника Дэнни Крэйга, имевшими уже четырехлетний опыт на местной Ванкуверской сцене. Сначала у группы было название Fallout. После прослушивания нескольких вокалистов их выбор пал на бывшего одноклассника Далласа Смита, чья энергия и рвение компенсировали его неопытность. Ребята записали пластинку с неизвестным басистом, и оная попала в руки Чеда Крюгера, знавшего Хору и Крэйга по… Читать полностью... Default — канадская рок-группа, образовавшаяся в 1999 году в Ванкувер, Канада, стараниями гитариста Джереми Хора и ударника Дэнни Крэйга, имевшими уже четырехлетний опыт на местной Ванкуверской сцене. Сначала у группы было название Fallout. После прослушивания нескольких вокалистов их выбор пал на бывшего одноклассника Далласа Смита, чья энергия и рвение компенсировали его неопытность. Ребята записали пластинку с неизвестным басистом, и оная попала в руки Чеда Крюгера, знавшего Хору и Крэйга по одной из предыдущих групп. Крюгер предложил сделать им независимые записи, и ребята начали искать счастье в Ванкувере. В 2000 году они попали на конкурс талантов, спонсированный местной радиостанцией, и выиграли право на запись пластинки на "Vancouver Seeds 2000". Как раз незадолго до этого команда поменяла свое название на Default. Их песня "Deny" впоследствии становится настоящим хитом на местном рок-радио, что повлекло за собой сделку с TVT Records. Чуть позже к ребятам присоединился басист Дэйв Бенедикт (Dave Benedict). Группа была полностью сформирована и весной 2001-го. Default засели в студии с продюсером Риком Парашаром (Rick Parashar) и записали свой дебютный альбом "The Fallout". Их следующее творение - "Elocation" - появилось в 2003 году. Живое наследие гранжа, хард-рока без американских поп-привычек, современный тяжелый рок по стандартам 90-х: мясистые гитарные текстуры, характерная ню-металу громкость, одновременно непривычная в мейнстриме легкая депрессивность и чистая мелодика гранжа в одном. Чистый гранжевый вокал, чистый поток хитовости популярной альт-рок-музыки начала 90-х, немного сегодняшнего дня и непривычная теперь размеренность. Самое интересное в этой группе - практически полное отсутствие агрессивности (для выбранного стиля и времени), благодаря чему группа может легко найти поклонников и среди "остепенившихся" слушателей современной альтернативной рок-музыки и среди более старшего поколения. Третий альбом группы - One Thing Remains - увидел свет 11 октября 2005 года. Состав: Dallas Smith - вокал Jeremy Hora - гитара Dave Benedict - бас Danny Craig - ударные Скрыть...
Популярные аккорды Default:
алфавиту | просмотрам | случайно
  • Intro
    e-----------------------------------------------------------
    B-----------------------------------------------------------
    G-----------------------------------------------------------
    D-----------------------------------------------------------
    A-----------------------------------------------------------
    E---3(Volume…
  • Tuning: Drop D (DADGBe)
    
    
    Intro and outro
        D       C             F         G   
    E---3---1-----0--1-0--------------------------
    B---------------------------------------------
    G----------------------------2--0----4---5-4--
    D---------------------------------------------
    A-----------3--3-----3------------------------…
  • E A D G B E
    
    
    Intro:
    
    gtr. 1 (acous.)
    
    e-2-----0------------3------------3-------------
    b-3-----3------------3------------3-------------
    g-2-----0------------0------------0-------------
    d-0-----2------------2------------0-------------
    a-------0------------3------------2-------------
    e---------------------------------3-------------
    
    gtr.…
  • Intro
    G|----|
    D|----|
    A|----|
    D|-7-|
    
    
    Verse   Part I
    G|------------------------------------|
    D|------------------------------------|
    A|-5-5-55-3-2-2-22-2-0----------2-3-5-|
    D|---------------------5-5-55-5-------|
    
    
    Part…
  • Chords:
    D:     |000232|
    Asus*: |020230| - small variation
    C:     |032010|
    G:     |320033|
    Em:    |022000|
    
    
    ->Verse/Intro:
    
    D Asus* C G X2
    A Asus* C G
    A Asus* C
    
    
    ->Chorus:
     
    D G Em G
    D G Em G
    
    
    Lyrics: 
    D     Asus    C…
  • gtr. 1&2:
    E A D G B E
    
    gtr. 3 capo 6th fret
    (piano arr for gtr.)
    
    ( ) = harmonics
    
    
    Intro:
    
    Fig. 1
    
    e----------------------------------------------
    b-----------------------------1----------------
    g---2----2-2--2--5-----0------2-------2p0-0-0--
    d--0-----0-0--0--0--3---------3-----3-----3----
    a-0--------------------------------------------
    e-------------------------1--------------------
    
    e-------------------------------------------------
    b-------------------------------------------------
    g-2---2-2--2--5-----0-----2--2-2-2/4-4-4-5-4-4-4--
    d-0---0-0--0--0--3--------3--3-3-3/5-5-5-5-5-5-5--
    a-------------------------------------------------
    e----------------------1--------------------------
    
    gtr.…
  • Guitar Tuning: D A D G B e
    
    
    Intro/Chorus
    e------------------------------------------------------------------|
    B------------------------------------------------------------------|
    G--7-77-7-6-7-----7-6-7--------------------------------------------|…
  • E A D G B E
    
    ( ) = harmonic
    
    
    Intro: w/ fdbk.
    
    e-----------------------------------------------------------------
    b-8---------------------------------------------------------------
    g-7---------------------------------------------------------------
    d-6---------------------------------------------------------------
    a-7---------------------------------------------------------------
    e-----------------------------------------------------------------
    
    
    Riff…
  • E A D G B E
    
    
    Intro:
    
    e----------------0------------------------0---------
    b----------3--------0---------------3--------0------
    g-1----x--------------------1----x------------------
    d-2----x----------------2---2----x---------------0--
    a-2----x--------------------2----x------------------
    e-0----x--------------------0----x------------------
    
    e-------------0-----------------------0-------------
    b-------2--------2-----2-----1-----------1-----0----
    g----------0--------0-----------0-----------0-------
    d----2-----------------------------2----------------
    a-0-----------------------0-------------------------
    e---------------------------------------------------
    
    e----------------0------------------------0---------
    b----------3--------0---------------3--------0------
    g-1----x--------------------1----x------------------
    d-2----x----------------2---2----x---------------0--
    a-2----x--------------------2----x------------------
    e-0----x--------------------0----x------------------
    
    e-------------0-----------0-------------------------
    b-------2--------2-----2--1-------------------------
    g----------0--------0-----0-------------------------
    d----2--------------------2-------------------------
    a-0-----------------------0-------------------------
    e---------------------------------------------------
    
    e----------------0------------------------0---------
    b----------3--------0---------------3--------0------
    g-1----x--------------------1----x------------------
    d-2----x----------------2---2----x---------------0--
    a-2----x--------------------2----x------------------
    e-0----x--------------------0----x------------------
    
    e-------------0-----------------------0-------------
    b-------2--------2-----2-----1-----------1-----0----
    g----------0--------0-----------0-----------0-------
    d----2-----------------------------2----------------
    a-0-----------------------0-------------------------
    e---------------------------------------------------
    
    
    Verses:
    
    e-------------------------0--------0---------0------
    b---------------------------2----------1-------1--0-
    g-1-------------------0------------------0--------0-
    d-2---------------------2------------------2--------
    a-2-----------------0-------------------------------
    e-0-------------------------------------------------
    
    
    Chorus:
    
    e-----------------------------------------------------------------
    b-----------------------------------------------------------------
    g-----------------------------------------------------------------
    d------/9----9-9-9--------/9-----9-9---7----7--7-7---7----7--7--7-
    a------/7----7-7-7--------/7-----7-7---5----5--5-5---4----4--4--4-
    e-0------------------0--------------------------------------------
    
    
    Solo:
    
    e-----------------------------------------------------------------
    b-----------------------------------------------------------------
    g-----------------------------------------------------------------
    d----------------------------------------------------14~~-14-14-12
    a-12~~~~-11~~~-------12~~~-12-12-11~~~-12-11-12-/14---------------
    e--------------12-12----------------------------------------------
    
    e-----------------------------------------------------------------
    b-----------------------------------------------------------------
    g------------------------14-------14----12---------13-14~-13-14-13
    d---11----------------------14~~~----------14-14------------------
    a------12-10-12~~~-12-12------------------------------------------
    e-----------------------------------------------------------------
    
    e---------------------12-------------12-----12--------------------
    b----15p12---12----12----15p12----12------12---15p12---12-15p12-12
    g-14b-----14----14b------------14b-----14b----------14b-----------
    d-----------------------------------------------------------------
    a-----------------------------------------------------------------
    e-----------------------------------------------------------------…
  • Drop D:
    D A D G B E
    
    
    Intro:
    
    Fig. 1
    
    e-----------------------------------------------------------------
    b-----------------------------------------------------------------
    g-6----6-----7----4-----2---------6----6-----7----4-----2---------
    d-0----0-----0----0-----0---------0----0-----0----0-----0---------
    a-0----0-----0----0-----0---------0----0-----0----0-----0---------
    d-0----0--0--0----0--0--0---------0----0--0--0----0--0--0---------
    
    Verses:…
  • Intro:
    e|-----------------------------------------------|
    B|-----------------------------------------------|
    G|-----------------------------------------------|
    D|-----------------------------------------------|
    A|--5--7--5--3---x--5--7--5--3---x--x--x--x--x---|
    E|-----------3---x-----------3---x--x--x--x--x---|
    
    e|-----------------------------------------------|
    B|-----------------------------------------------|
    G|-----------------------------------------------|
    D|-----------------------------------------------|
    A|--7--5-----5---x--7--5-----5---x--5/7----------|
    E|--------7--5---x--------7--5---x--5/7----------|
    
    Play…
  • Drop D: 
    D A D G B E
    
    ( ) = harmonics
    
    
    Intro: Fig. 1
    
    e------------------------------------------
    b------------------------------------------
    g-7-------7---7-----7---7-----7---7--7--7--
    d-4-------5---5-----4---4-----5---7--5--7--…
  • Standard Tuning
    
    
    Chords
    
    C - x 3 2 0 1 0
    Em - 0 2 2 0 0 0
    Am - x 0 2 2 1 0
    Fmaj7 - 1 3 3 2 1 0
    G - 3 x 0 0 3 3
    
    
    C                     Em               Am
         Something's wrong with your mind
              Fmaj7
    It won't think…
  • Standard Tuning:
    
    E A D G B E
    
    T = use thumb
    
    
    Intro:
    
    Fig. 1 x2
    
    e---------------------------------------------------------
    b-2----2-2--0--------2p0-----2----2-2--0--------2p0-------
    g-3----3-3------3------------3----3-3------3--------------
    d-4----4-4--------4------4---4----4-4--------4-------4----
    a-4----4-4-------------------4----4-4---------------------
    e-2----2-2-------------------2----2-2---------------------…
  • Drop D:
    D A D G B E
    
    * = pm
    ( ) = harmonic
    
    
    Intro:
    
    e-----------------------------------------------------------------
    b-3---------------------------------------------------------------
    g-2---------------------------------------------------------------
    d-0---------------------------------------------------------------
    a-0---------------------------------------------------------------
    d-0---------------------------------------------------------------
    
    gtr.…
  • Intro
    e |---------------------------------|
    B |---------------------------------|
    G |---------------------------------|
    D |---------------------------------|
    A |--5--2--0--7-----5--0--7--2------|
    e |---------------------------------|
    
    
    Chorus
    e…
Наверх