Аккорды «Deicide»

Deicide
Штат Флорида, а именно город Тампа - это своеобразный рудник по добыче дэт-метала. Наверно, ни один другой город мира не родил столько брутальных команд, сколько подарила нам Тампа. Одной из жемчужин стала группа Deicide. Началась история в 1987-м году. Тогда в группе Carnage играли братья-гитаристы Эрик Хоффман (Eric Hoffman) и Брайан Хоффман (Brian Hoffman) и ударник Стив Эшейм. Когда к ним присоединился Глен Бентон (Glen Benton), название сменили на Amon. В течение этого времени было издано… Читать полностью... Штат Флорида, а именно город Тампа - это своеобразный рудник по добыче дэт-метала. Наверно, ни один другой город мира не родил столько брутальных команд, сколько подарила нам Тампа. Одной из жемчужин стала группа Deicide. Началась история в 1987-м году. Тогда в группе Carnage играли братья-гитаристы Эрик Хоффман (Eric Hoffman) и Брайан Хоффман (Brian Hoffman) и ударник Стив Эшейм. Когда к ним присоединился Глен Бентон (Glen Benton), название сменили на Amon. В течение этого времени было издано два демо-альбома: Feasting the Beast (1987) и Sacrificial (1989). В 1989 по распоряжению Roadrunner Records название группы было изменено на Deicide, поскольку словом Amon назывался дом в альбоме группы King Diamond Them. После этого, Deicide выпустила свой дебютный альбом с одноимённым названием. Далее непременно стоит сказать о Глене. Это единственный настоящий сатанист в группе. Говорят, он даже молится Сатане перед выступлениями и записями. Самый известный глюк Глена - выжженный на лбу перевернутый крест. Его вокал является одним из самых оригинальных и мощных в метал музыке. Вокальные партии Бентона часто отличаются друг от друга - Глен использует и быстрый нечленораздельный рык, и скрим. На студийных записях для пущего эффекта эти голоса накладываются один на другой. Deicide исполняет песни почти исключительно на антихристианские темы, и эта группа запрещена в некоторых странах, как и многие другие спорные группы (например Slayer и Cannibal Corpse). В 95-м музыканты принялись за сессии очередного альбома, получившего название Once Upon The Cross. Стиль группы остался неизменным, также как и тематика песен. Следующее творение коллектива, Serpents of the Light появилось на свет в 1997-м, а на следующий год Roadrunner переиздала дебютный альбом Deicide, выпустив вдогонку концертник When Satan Lives. После выхода Insineratehymn состоялись глобальные американские гастроли группы в качестве хедлайнеров в одной связке с Marduk. В начале 2002-го Глен Бентон начинает работу в качестве вокалиста у Vital Remains. Чуть позже Deicide вновь выступили в роли хедлайнеров, на этот раз в европейском туре. Осенью закончился контракт с Roadrunner, и группа перешла к Earache, с которыми работает до сих пор. Состав группы оставался неизменным до 25 ноября 2004 года, когда Глен Бентон объявил, что братья Хоффман исключены из группы за регулярную отмену концертов. Для проведения оставшейся части текущих гастролей место первого гитариста занял бывший гитарист Cannibal Corpse Джек Оуэн, а место второго - неизменный участник группы Vital Remains, Дэйв Судзуки. Ральф Сантолла также был представлен в составе команды на гастролях 2005 года. В 2006-м Deicide поразили всех фанатов выходом гениального Stench of Redemption. Ральф Сантолла подтвердил свой статус одного из лучших гитаристов мира. Не отстаёт от него и Оуэн. Стив как и раньше строчит как пулемёт, ну а Глен выжался по полной. Фанатов прибавилось, и группа поехала в очередное турне. В 2007-м был выпущен DVD с концертом в Лос Анджелесе. Весной 2008-го года вышел Till Death Do Us Part («Пока смерть не разлучит нас»), явно не дотягивающийся до высот предыдущего альбома, но несомненно сильный. Порой становится не по себе от тяжести и своеобразной «апокалиптичности» релиза. В 2011 году выходит альбом To Hell With God, ставший третьим для группы после ухода братьев Хоффмамн. http://www.deicide.com/ Скрыть...
Популярные аккорды Deicide:
алфавиту | просмотрам | случайно
  • INTRO - Standard Tuning
    Cymbal Lead in
    |D|--------------------------------------------------|| 
    |A|--------------------------------------------------||
    |E|00000000000000000000000000000000000000000000000000
    
    Last bar here…
  • Tuning: Half step down
    
    Fig. 1 x1
    e|-------------|
    B|-------------|
    G|-------------|
    D|--4-3-3-2-2--|
    A|--2-1-1-2-2--|
    E|--2-1-1-0-0--|
        . . . . .
    
    Riff 1 x1
    e|---------------------------------|-------------------------------------|
    B|---------------------------------|-------------------------------------|
    G|---------------------------------|-------------------------------------|
    D|--222-111------------------------|--------------111-000----------------|
    A|----------222-111----------------|------111-000------------------------|
    E|------------------222-111111111--|--000-----------------222-111111111--|
    
    e|----------------------------------------|------------------------|
    B|----------------------------------------|------------------------|
    G|----------------------------------------|------------------------|
    D|---------222-111------------------------|--------------111-000---|
    A|-----------------222-111----------------|------111-000-----------|
    E|--00000------------------222-111111111--|--000-------------------|
    
    Repeat…
  • Tuning: Eb (half step down)
    
    Riff 1
    e|---------------------------------------------------------------
    B|---------------------------------------------------------------
    G|---------------------------------------------------------------
    D|---------------------------------------------------------------
    A|--------------------------------2222---------------------------
    E|--4444-0000-1111-0000-4444-0000------0000----------------------
    
    Fig.…
  • Riff 1 x6
    e|-----------------------------|
    B|-----------------------------|
    G|-----------------------------|
    D|-----------------------------|
    A|---------------333222222111--|
    E|--222111444333---------------|
    
    Gtr. 2 plays…
  • Tuned to either E or E Flat.
    
    
    Intro
    D-----------------------------------------------------------------------
    A-3333333333330000000000002222222222223333222211111111------------------
    E-----------------------------------------------------------------------…
  • Tune Gtr to E
    
    Riff 1                                                      1.----|2.-----|
    |-----------------------------------------------------------------|-------|
    |-----------------------------------------------------------------|-------|…
  • Tune down 1/2 step.
    
    Riff A: Intro
    |eb|-------------------------------------
    |Ab|-------------------------------------
    |Db|-------------------------------------
    |Gb|-------------------------------------
    |Bb|-----------------1---------33333333--
    |Eb|--00000000-0-1-3---0-1-3-0-----------…
  • Tuning: Half step down
    
    Fig. 1
    e|-------------------------------------------------|
    B|-------------------------------------------------|
    G|-------------------------------------------------|
    D|--------------------------------------------3----|
    A|--------------------------------------------1----|
    E|--0-0-302-0-0-0-203-0-0-301-0-0-0-203-0-0-3---0--|…
  • Tune Gtr to D
    
    *Riff A
    |--------------------------------------------------------------------|
    |--------------------------------------------------------------------|
    |--------------------------------------------3333--------------------|Gtr
    |------00001111------3333------00001111----------------00001111------|…
  • Tuning: Standard
    
    Intro x1
    e|----------|------------|-----------|-------------|---------|-----------|-----------------|
    B|----------|------------|-----------|-------------|---------|-----------|-----------------|
    G|----------|------------|-----------|-------------|---------|-----------|-----------------|
    D|----------|------------|--------3--|--------4----|---------|-----------|--------3---4----|
    A|-------4--|-------4-5--|------5-1--|------6-2-5--|------4--|------4-5--|------5-1-6-2-5--|
    E|--000--2--|--000--2-3--|--000-3----|--000-4---3--|--000-2--|--000-2-3--|--000-3---4---3--|…
  • Tune down 1/2 step (6:Eb 5:Ab 4:Db 3:Gb 2:Bb 1:Eb) 
    
                     Riff A 
    |---------------|---------------------------|-------------------------| 
    |---------------|---------------------------|-------------------------|…
  • Tuning: One step down
    
    Riff 1
    e|---------------------------------------------------------------
    B|---------------------------------------------------------------
    G|---------------------------------------------------------------
    D|--444-333-444-777-444-333-444-333------------------------------
    A|----------------------------------555-666-555-666--------------
    E|---------------------------------------------------------------
    
    Riff…
  • Tuning: Half step down
    
    Fig. 1
    e|---------------|-------------------|
    B|---------------|-------------------|
    G|---------------|-------------------|
    D|--3------------|--3----------------|
    A|--1-----0------|--1-----0----------|
    E|----0-2---1-0--|----0-2---2-4-1-0--|…
  • Tuning: Eb (half step down)
    
    Riff 1
    e|------------------------|-----------------------|------------------------|---------------------
    B|------------------------|-----------------------|------------------------|---------------------
    G|------------------------|-----------------------|------------------------|---------------------
    D|------------------------|-----------------------|------------------------|---------------------
    A|--2222------5555-0-2-3--|--2222------3333-1111--|--2222------5555-0-2-3--|--2222---------------
    E|-------2222-------------|-------2222------------|-------2222-------------|-------2222-1111-4444
    
    e|------------------------|-----------------------|------------------------|---------------------
    B|------------------------|-----------------------|------------------------|---------------------
    G|------------------------|-----------------------|------------------------|---------------------
    D|------------------------|-----------------------|------------------------|---------------------
    A|--2222------5555-0-2-3--|--2222------3333-1111--|--2222------5555-0-2-3--|--2222---------------
    E|-------2222-------------|-------2222------------|-------2222-------------|-------2222-1111-0000
    
    Fig.…
  • Recorded in Drop-D tunning 
     
    Intro Riff 1(fast)                       (Fill 1)played on 2x & 4x w/Riff 1
    |----------------------------------------|----------------| 
    |----------------------------------------|----------------|…
  • Tuning: Standard
    
    Fill 1 x1
    e|---------|
    B|---------|
    G|---------|
    D|---------|
    A|------3--|
    E|--000-1--|
    
    Fig. 1 x1
    e|---------------------------------------------|
    B|---------------------------------------------|
    G|---------------------------------------------|
    D|---------------------------------------------|
    A|------3-2-----4-3-6-5------------------------|
    E|--000-1-0-000-2-1-4-3-000-6-3-5-2-4-1-000-3--|
    
    Repeat…
  • Tuning: Half step down
    
    Open with this-
    D|-------|
    A|-------|
    E|--10/--|
    
    Riff 1 x8
    e|-----------------------------------------------|
    B|-----------------------------------------------|
    G|-----------------------------------------------|
    D|-----------------------------------------------|
    A|----------111---------222-333-----111----------|
    E|--000-222-----000-111---------222-----222-333--|
    
    Riff…
  • Tune Gtr to E Flat
    
    Riff A                            6tx
    |------------------------------------|
    |------------------------------------|
    |------------------------------------|Gtrs
    |-88888888888888889999---------------|I&II
    |----------------------88889999------|
    |-------------------------------7777-|
    
    
    Riff…
  • Tuning: Half step down
    
    Fig. 1 x2
    e|-------------------------------------------|
    B|-------------------------------------------|
    G|-------------------------------------------|
    D|------2/3-----2-3-5-4-3-----235323---------|
    A|-----------------------------------3510-3--|
    E|--000-----000-----------000-------------1--|
    
    Riff…
  • Tune Gtr to D
    
    Intro
    |----------------------------------------------------------------|
    |----------------------------------------------------------------|
    |----------------------------------------------------------------|
    |---5-5---5-5---5-5---5-5---5---5---3-----3-----3-----3----3---3-|
    |---3-3---3-3---3-3---3-3---3---3---1-----1-----1-----1----1---1-|
    |-2-----2-----2-----2-----2---2---0---0-0---0-0---0-0---0-0--0---|
    |…
  • Tuning: Standard
    
    Riff 1 x9
    e|------------------------------------------------------|
    B|------------------------------------------------------|
    G|------------------------------------------------------|
    D|------------------------------------------------------|
    A|------------------------------------------------------|
    E|--100000000000222222222111111000000000000--065306530--|…
  • Tuning: Half step down
    
    Riff 1 x4
    e|----------------------------------------|
    B|----------------------------------------|
    G|----------------------------------------|
    D|----------------------------------------|
    A|--22222222------------------------------|
    E|-----------2222-5555-00000000-33333333--|
    
    Fig.…
  • Tune Gtr to D
    
    Riff A                       7tx
    |-------------------------------|
    |-------------------------------|
    |-------------------------------|
    |-------------------------------|
    |-1111--------------------------|
    |------000022221111000011113333-|
    |…
  • Tuning: Standard
    
    Riff 1 x12
    e|-------------|-------------|-------------|-------------|
    B|-------------|-------------|-------------|-------------|
    G|-------------|-------------|-------------|-------------|
    D|-------------|-------------|-------------|-------------|
    A|--3-3p2------|-------------|----2p1------|----3p2------|
    E|--------310--|--0-6p5-310--|--0-----310--|--0-----310--|
    
    Riff…
  • Tuning: Standard
    
    Intro x1
    Gtr. 1
    e|---------------|-----------------|------------------|-----------------|
    B|---------------|-----------------|------------------|-----------------|
    G|---------------|-----------------|---------------3--|-----------------|
    D|--1-----1------|-----------------|---------------2--|-----------------|
    A|---21----21----|----------3-4-5--|------------------|----------3-4-5--|
    E|-----10----10--|----------1-2-3--|----------100-----|----------1-2-3--|
    
    Gtr.…
  • *play this part slow
    |-----------------11-12-14-15-17-18-20-21-20-18-17-15-14-12-11---------------------|
    |------------11-12--------------------------------------------12-11----------------|
    |-------11-12------------------------------------------------------12-11-----------|
    |-/12-13----------------------------------------------------------------13-12------|
    |----------------------------------------------------------------------------13-12-|
    |----------------------------------------------------------------------------------|
    
    |--------------------------------------------------------------------------------|
    |--------------------------------------------------------------------------------|
    |----------------------------------------14-12-11-14-12-11-171717171717-14-12-11-|
    |-14-12-11-14-12-11-171717171717-14-12-11----------------------------------------|
    |--------------------------------------------------------------------------------|
    |--------------------------------------------------------------------------------|
    
    Then…
  • Tune the guitar half step below (sixth string is a D#).
    
    
    -----------------------------------|-----------------------------------------------------------
    -----------------------------------|-----------------------------------------------------------
    -----------------------------------|-----------------------------------------------------------
    -5-4-------4-3-------3-2-----------|-----------------------------------------------------------
    -3-2-------2-1-------1-0-------4-5-|-3-3-3-2-2-------2-2-2-1-1-------1-1-1-0-0-----------------
    -----0-0-0-----0-0-0-----0-0-0-2-3-|-----------0-0-0-----------0-0-0-----------0-0-0-2-2-2-3-3-
    
    -----------------------------------------------------
    -----------------------------------------------------
    -----------------------------------------------------
    -----------------------------------------------------
    -3-3-3-2-2-------2-2-2-1-1-------1-1-1-0-0-------3-2-
    -----------0-0-0-----------0-0-0-----------0-2-3-----
    
    -----------------------------------------------------------------------
    -----------------------------------------------------------------------
    -----------------------------------------------------------------------
    -------------------------------------------------------------10-10-9-9-
    ---------8-8-7-7---------10-10-8-8---------8-8-7-7-10-10-8-8-----------
    -0-0-0-0---------0-0-0-0-----------0-0-0-0-----------------------------
    
    -------------------------------------------------------------------
    -------------------------------------------------------------------
    -------------------------------------------------------------------
    -------------------------------------------------------------------
    ---------8-8-7-7---------10-10-8-8---------3-3-2-2-5-5-3-3---------
    -0-0-0-0---------0-0-0-0-----------0-0-0-0-----------------3-3-1-1-
    
    -----------------------------------------------------------------
    -----------------------------------------------------------------
    -----------------------------------------------------------------
    -----------------------------------------------------------------
    -----------------------------------------3-3-3-3-2-2-2-2-1-1-0-0-
    -0-0-0-0-1-1-1-1-4-4-4-4-3-3-2-2-1-1-1-1-------------------------…
  • Tunning: Eb Ab Db Gb Bb Eb
    
    
    Riff A1: The slide up the neck doesn't have to be accurate.
    
                     x3
    |------------------|---------------------|
    |------------------|---------------------|
    |------------------|---------------------|
    |------------------|---------------------|
    |------------------|---------------------|
    |-0000-0-0-0000----|-0000-0-0-0000-/(7)-|…
  • BASS TABLITURE 
    --------------------------------------------------------------------------
    ----------------------------------9-10-7--9-10-7--9-10-7---9-10-7---9-10-7
    ---------7-8-5-7-8-5-7-8-5-7-8-5-7-8-5---7-8-5---7-8-5----7-8-5----7-8-5--
    -0-1=X20…
  • Tuning: Half step down
    
    Riff 1 x4
    e|-----------------------------------------------------------------------------------------|
    B|-----------------------------------------------------------------------------------------|
    G|-----------------------------------------------------------------------------------------|
    D|-----------------------------------------------------------------------------------------|
    A|-----111000--------------111000-----------------111000----000333----111000----------111--|
    E|--000-------000222333-000-------000222333111000-------000-------000-------000-222333-----|
    
    Riff…
  • Tuning: Standard
    
    Fig. 1 x3
    e|-------------------|
    B|-------------------|
    G|-------------------|
    D|----------2-2-3-3--|
    A|-------------------|
    E|--2-0-3-3----------|
        . . . . . . . .
    
    Riff 1 x8 (Inhumation, intermenting…
  • Tuning: Half step down
    
    Riff 1 x4
    e|-------------------------|
    B|-------------------------|
    G|-------------------------|
    D|-------------------------|
    A|----3----------2---------|
    E|--2---555222-0---333000--|
    
    Riff 2 x1 (Time…
  • Tuning: Half step down
    
    Fig. 1 (intro)
    e|----------------------------------|
    B|----------------------------------|
    G|------5----------5-------------5--|
    D|------4----------4-------------4--|
    A|------------3----------3---4------|
    E|--000---000-1-0----000-1-0-2-0----|
    
    Fig.…
  • Tune down 1/2 step
    
    
    Riff A               (end Riff A)
    |--------------------------------|
    |--------------------------------|
    |--------------------------------|
    |--------------------------------|
    |--------------------------------|
    |00222222222222220022222233332222|
    
    Riff…
  • Tuning: Half step down
    
    Riff 1 x4
    e|-------------------|-------------------|-------------------|
    B|-------------------|-------------------|-------------------|
    G|-------------------|-------------------|-------------------|
    D|-------------------|-------------------|-------------------|
    A|------111----------|------111----------|------333----------|
    E|--000-----222-111--|--000-----333-222--|--111-----222-111--|
    
    Riff…
  • Tuned Full Step Down (D G C F A D)
    
    Riff 1:Intro
        PM--------------------------------------------------------------|
    ||----------------------------------|---------------------------------|
    ||o---------------------------------|---------------------------------|
    ||----------------------------------|---------------------------------|
    ||------------------3-3-3-3---------|-2-2-2-2-6-6-6-6-----------------|
    ||o-------------------------5-5-5-5-|---------------------------------|
    ||--0-0-0-0-1-1-1-1-----------------|-----------------0-0-0-0-1-1-1-1-|…
  • (Intro) (this goes until 0:05min)
    -------------------------------------
    -------------------------------------
    -------------------------------------
    -------------------------------------
    -7---5-7-8---7-8-10--9-1112---9--4-
    -5---3-5-6---5-6-8---7-9-10---7--2-
    
    
    (riff…
Наверх