Аккорды «Descendents»

Descendents
1978-ой был годом зарождения огромного количества панк-групп, и Descendents являются одним из самых важных и влиятельных панк/хардкор коллективов Америки первой половины 80-х. Изначально, группа представляла собой трио: Bill Stevenson (ударные), Frank Navetta (гитара) и Tony Lombardo (бас), которые обожали рыбалку, кофеинчик, еду, девочек, быструю езду и придумывать себе различные развлечения, одним из которых было сколотить группу, чтобы выдавать с максимальным весельем скорострельный панк-серф.… Читать полностью... 1978-ой был годом зарождения огромного количества панк-групп, и Descendents являются одним из самых важных и влиятельных панк/хардкор коллективов Америки первой половины 80-х. Изначально, группа представляла собой трио: Bill Stevenson (ударные), Frank Navetta (гитара) и Tony Lombardo (бас), которые обожали рыбалку, кофеинчик, еду, девочек, быструю езду и придумывать себе различные развлечения, одним из которых было сколотить группу, чтобы выдавать с максимальным весельем скорострельный панк-серф. И в 1979 году таким составом записали семидюймовку "Ride is Wild". Первое время вокальные партии (если их так можно было назвать) выполнял басист Тони и поскольку с задачей певца он справлялся так скажем, не ахти, парни пришли к общему мнению, что неплохо было бы найти вокалиста. Им стал на вид прилежный очкарик Milo Aukerman, чья физиономия впоследствии стала коронной для оформления всех пластинок Descendents. Но внешность, как это часто бывает, обманчива - Майло оказался настоящей оторвой и его кое-что не устраивало в американском обществе, а именно: американская жратва, которая содержит в себе тонны холестерина, от чего люди распухают до нездоровых размеров; а также различные подростковые проблемы. Все это преподносилось Аукерманом с хорошим чувством юмора. Далее в 1981 году было записано 6-песенное ЕР "Fat", которое помимо остальных 4-х содержало 2 хитовых трэка - "I Like Food" и "Wienerschnitzel" по 15 секунд в среднем каждая. Они, как несложно догадаться, на тему еды. Descendents набирали обороты и очень быстро завоевали любовь в рядах американских панков, посводив их с ума своими скоростными и короткими боевиками. Отыграв уже изрядное количество сумасшедших шоу они решили добить всех дебютным лонгплеем, который носит название "Milo Goes To College". Пластинка вышла в 1982 году на известном DIY панк/хардкор лейбле SST Records, который основал Greg Ginn из Black Flag. 23 минуты и 15 шустрых, сыгранных в бешеных скоростях трэка, которые в последствии явились эталоном для многих групп и по сей день являются ориентиром для: Nofx, Pennywise, Green Day, No Use For A Name, Lagwagon, Blink 182 и других коллективов, так популярных у современной панк-молодежи. После выхода дебютника в Descendents, как это нередко бывает, пошел разброд. Ломбардо свалил, но ему быстро нашли замену в лице Рэя Купера. Следом за Ломбардо барабанщик Билл Стивенсон был рекрутирован Greg'ом поиграть в Black Flag. В связи с этим Descendents приостановили свою деятельность на 3 года, чтобы с новыми силами и в немного измененном составе записать "I Don't Want To Grow Up" (1985). Теперь Рэй с баса переключился на гитару, объявились блудные сыны Билл и Тони, ну и конечно же старина Майло пока оставался на своем месте. "I Don't Want To Grow Up" вышел энергичным и драйвовым, но в большей степени мелодичным и мягким, нежели первенец. Затем последовал тур в поддержку новой пластинки, во время которого отсеялся Тони. На его место был взят некто Doug Carrion. И уже с новым басистом в 1986 году группа записала "Enjoy!", который на половину состоял, как из поп-панк баллад ("Get the time", "Wendy", "80's girl"), так и из хардкор-вещей ("Kids", "Hurtin' Crue"). После очередного тура уже в поддержку альбома "Enjoy!", подуставшие Кэррион и Купер, отчалили из группы. Их заменили Karl Alvarez и Stephen Egerton. В обновленном составе Descendents записали уж совсем попсовый и унылый альбом "All" (87). Несмотря на такие 4-х-секундные хиты, как "All" и "No!All" (которые, кстати, были записаны еще в 81-м году для епишки Fat, но по непонятным причинам, не попали на нее), пластинка состояла из сплошных экспериментов над стилями, что пошло ей совсем не на пользу. Группа зашла в тупик и Майло единственный, кто это понимал. Он решил завязать с панк-роком (по крайней мере на время) и ударился в учебу. Очки же он не просто так носил. Остальные участники учиться вовсе не хотели и быстро нашли выход из этой трудной ситуации. Вместе с вокалистом Дэйвом Смэйли из Dag Nasty они сколотили банду под названием All. Но история данного ансамбля - это совсем отдельная тема. Стоит лишь сказать, что сей коллектив продолжил в ключе ранних Descendents, только в более облегченном варианте. Но, в 1996 году (по истечении 9 лет) вдоволь поботанив, Майло решил, что учеба и хождение в белом лаборантском халате не приносит такого веселья, как времяпрепровождение в панк-группе. Навестив своих старых друзей Карла, Билла и Стивена, которые во всю были увлечены All, он предложил им возродить Descendents и вспомнить былые деньки. Не долго думая и изрядно заправившись кофе, ребзя ломанулись в студию, чтобы разразиться новым альбомом, который получил название "Everything Sucks". Диск вышел на Epitaph и был принят, соскучившимися и уже постаревшими фэнами на "УРА!". Последовал мировой тур, радости фэнов не было предела. Но Майло хватило ненадолго и вскоре он... снова ударился в учебу! Descendents изредка давали концерты, дабы давать понять всем, что это не еще конец. Но уже мало кто верил в их возрождение. Дат концертов почти не было, а Майло продолжал проводить опыты в химических лабороториях и это могло продолжаться сколь угодно долго. Но вот спустя 8 лет после выпуска последнего альбома "Everything Sucks", в 2004 году ко всеобщей неожиданности Descendents разродились аж двумя релизами: сначала EP "'Merican", а следом и новым LP "Cool To Be You", на котором группа вернулась к своим корням, и эту работу признают лучшей со времен "Milo Goes To College" (82) и "I Don't Want To Grow Up" (85). В общем, папочки вернулись и теперь тем, кто плохо вел себя в их отсутствие не избежать наказания и отрезанных яиц. Кстати, "Cool To Be You" вышел на Fatwreck'е - лейбле одного парня по имени Mike из некой группы Nofx, который просто спал и видел выпустить любимую им с детства группу Descendents. На этом можно было бы закончить историю группы, но пока Майло вроде как не скучает по своим химическим лабораториям, да и кофе у парней предостаточно еще для того, чтобы давать жарева и писать пластинки без перерывов. Хотя им можно! Скрыть...
Популярные аккорды Descendents:
алфавиту | просмотрам | случайно
  • Riff A- - - - - - - - - - - - - - - - - - - - - - - - - - - - - - - - - - -|
    -------------------------------------+---------------------------------------+
    -------------------------------------+---------------------------------------+
    -------------------------------------+---------------------------------------+
    -------------------------------------+---------------------------------------+
    --------------------5--5-----------+----5--5--8------------------------------+
    ---5--5--7--7------------7--7---+----------------7--------------------------+…
  • -----------------------------------------------------------------|
    -----------------------------------------------------------------|
    -----------------------------------------------------------------|
    ------4-5-2-4-----4-2---------4-5-2-4-----4-2--------------------|
    ----4-----------4-----5-4---4-----------4-----5-4----------------|
    --2-----------2-----------2-----------2--------------------------|
    
    -----------------------------------------------------------------|
    -----------------------------------------------------------------|
    ------6-7-4-6-----6-4----------11-12-9-11------11-9--------------|
    ----6-----------6-----7-6---11--------------11------12-11--------|
    --4-----------4-----------9---------------9----------------------|
    -----------------------------------------------------------------|
    He's…
  • Cmaj        Parents
    ----------------------------------------------------------------------
    
    
    G: -----------------:
    D: ---9-10-7=-9}-10-:
    A: 77---------------:
    E: -----------------:
    
    
    ----------------------------------------------------------------------
    
    
    G:…
  • CHORDS
    
        D    A    Bb   Bbii    B   Eii   Fii   G    Gii   Aii   C    E
    
    |---------------------------------------------------------------------|
    |---------------------------------------------------------------------|
    |---7--------------15-----------9----10---------12----14----5----1----|
    |---7----7----8----15------9----9----10----5----12----14----5----2----|
    |---5----7----8----13------9----7----8-----5----10----12----3----2----|
    |--------5----6------------7---------------3---------------------0----|
    
    
    Intro:
    
    |-------------10----10--|
    |----------------10-----|
    |---7---7---------------|…
  • Song structure:
    
    Intro
    Verse
    Pre-chorus
    Chorus
    Verse
    Pre-chorus
    Chorus
    Solo (Play intro)
    Bridge
    Chorus
    Ending
    
    Intro:
    
    E|------------------------------------------|
    B|------------------------------------------|
    G|------------------------------------------|
    D|------------------------------------------|
    A|-5--77777777-55555555-77777777-33333333---|
    E|-3--55555555-33333333-55555555-11111111---|
    
    E|------------------------------------------|
    B|------------------------------------------|
    G|------------------------------------------|
    D|-555555555555-----------------------------|
    A|-333333333333-555-777777777777--6-6-------|
    E|--------------333-555555555555--4-8-------|
    
    Verse:
    
    E|------------------------------------------|
    B|------------------------------------------|
    G|------------------------------------------|
    D|-55555555-77777777------------------------|
    A|-33333333-55555555-333333333333-3-5-------|
    E|-------------------111111111111-1-3-------|
    
    Pre-chorus:…
  • Intro:
    
    E|--------------------------------------------|
    B|--------------------------------------------|
    G|--77777777--1212121212121212-------10-------|
    D|--77777777--1212121212121212--888--10--10~--|
    A|--55555555--1010101010101010--888---8--10---|
    E|------------------------------666-------8---|
    
    Verse:
    
    (Don't…
  • Opening Chord:
    
    E|-5-|
    B|-5-|
    G|-5-|
    D|-7-|
    A|-7-|
    E|-5-|
       Am
    
    Verse: Play 3x - First time Palm Mute
    
    E|----------------------------------|
    B|----------------------------------|
    G|--10101010------------------------|
    D|--10101010--10101010--5555--7777--|
    A|---8-8-8-8--10101010--5555--7777--|
    E|-------------8-8-8-8--3333--5555--|
    
    End…
  • Intro:
    
    [-----------------------------------------------------]
    [-----------------------------------------------------]
    [-----------------------------------------------------]
    [---------------------------2-0-----------------------]
    [-----3-2-3---3-5-3--3-2-3-------3--------------------]
    [-----------------------------------------------------]
    
    Verse
    
    G…
  • (guitar only, then intro)
    G---------------------------------------------------------|
    D-12/555555-----------------------------54----------------|
    A----------77-555555--333333-333333/7>----75--5----5-5555-|
    E-----------------------------------------------320-------|
    
    (verse)
    G--------------------------------------------------------------|
    D----------------------------------------------------545754----|
    A---------------5-555555-5-------------------5-55555-------753-|
    E-3-333330000000-----------02--3-333330-00000------------------|
    
    (first…
  • G
    D     5 444
    A 555       5 333333 034  -- : repeat x 8
    E
    -------------------------------------------
    G
    D
    A 5555 3333 3333 5555 5555 3333 345 --repeat x 2
    E
    ------------------------chorus----------------
    G…
  • E:----------------------------------------
    B:-10-9-7-----------------10-9-8----------
    G:--------9-8-11-9----9----------9-8-11-9-
    D:-----------------11---------------------
    A:----------------------------------------
    E:----------------------------------------
    
    E:--------------------------------------------------------------
    B:-10-9-7------------------9-12-9--------------10-9-------------
    G:--------9-8-11-9-----------------11-9--9-11-------11-9-8------
    D:--------------------11-9---------------------------------11-9-
    A:--------------------------------------------------------------
    E:--------------------------------------------------------------
    
    E:--------------------------------
    B:----------------10-9------------
    G:-----8-8-9-11-------11-9-8------
    D:-9-11----------------------11-9-
    A:--------------------------------
    E:--------------------------------…
  • -----------------------------------------------------------------|
    -----------------------------------------------------------------|
    -----------------------------------------------------------------|
    --------------------------------------------8-8-9-9-11-11--------|
    ----------------7-7-9-9-10-10-7-7-9-9-10-10----------------------|
    --7-7-9-9-10-10--------------------------------------------------|
    
    -----------------------------------------------------------------|
    -----------------------------------------------------------------|
    ---------8-9-8-9^(11)---8^9^8------------------------------------|
    --8-9-11---------------------------------------------------------|
    -----------------------------------------------------------------|
    -----------------------------------------------------------------|
    
    -----------------------------------------------------------------|
    -12-12-10-9----9----9----9^10-9----------------------------------|
    ------------11---11---11--------11-11-9-8-8----------------------|
    --------------------------------------------9-9-7-7-9------------|
    -----------------------------------------------------------------|
    -----------------------------------------------------------------|
    
    -----------------------------------------------------------------|
    -----------------------------------------------------------------|
    --------------9^(11)-9-8-9^8-8~~~~-------------------------------|
    --------7---7----------------------9-----------------------------|
    --7-8-9---9------------------------------------------------------|
    -----------------------------------------------------------------|
    
    -----------------------------------------------------------------|
    --------------------------------------------10/12-12/10----------|
    ---------------------------------------9/11-------------11/9-----|
    -----------------------------------------------------------------|
    ----------------7-7-9-9-10-10-7-7-9-9----------------------------|
    --7-7-9-9-10-10--------------------------------------------------|…
  • Intro:
                E5
    e----------------------|
    b----------------------|
    g---9999999999999999---|
    D---9999999999999999---|
    A---7777777777777777---|
    E----------------------|
    
    
    Verse:
        E5  G5 D5 E5 G5 D5 E5 G5 D5 E5  G5…
  • intro - C#
    
    
    C#-E-B-C#
    Look out get out of way 
    I'm going to the atomic cafe 
    I'm going to the atomic cafe 
    
    A - B - C# - E - D#
    You're a mystery to me Kabuki girl 
    
    C#-E-B-C#
    Don't say sayanaro 
    I want to see you tomorrow…
  • intro
    ----------------|
    ----------------|
    -----6-7--------|
    -4-4-6-7-7-7----|
    -4-4-4-5-7-7----|
    -2-2-----5-5----|
    
    why can't you see...     your already thinking...
    wait for his spark..     hes gonna make you feel..
    ----------------------|…
  • Chords used:
    
       A   G   B   C#
    A|-7-|-5-|-9-|-11-|
    E|-5-|-3-|-7-|-9--|
    
       C   D   E
    D|-5-|-7-|-9-|
    A|-3-|-5-|-7-|
    
    
                              A G C G C D
    I don't believe in unity
    A             C       G      A     A G…
  • Intro: (I found this way easier)
    
    E|-----------------------------------------------------------------|
    B|-----------------------------------------------------------------|
    G|-----------------------------------------------------------------|
    D|-------5--------------5--------------5--------------5------------|
    A|--0--0---0-4-5-4-0--0---0-4-5-4-0--0---0-4-5-4-0--0---0-4-5-4-0--|
    E|-----------------------------------------------------------------|
    
    E|---------------------------------------------------------------|
    B|---------------------------------------------------------------|
    G|---------------------------------------------------------------|
    D|-------5--------------5--------------5--------------5----------|
    A|--0--0---0-4-5-4-0--0---0-4-5-4-0--0---0-4-5-4-0--0---0-4-5-5--|
    E|---------------------------------------------------------------|
    
    
    Verse:
    
    (I'm…
  • Intro
    |--------------------------------- 
    |--------------------------------- 
    |-9----8----9----8--8--8--8--8--8- 
    |-9----8----9----8--8--8--8--8--8-
    |-7----6----7----6--6--6--6--6--6- 
    |---------------------------------
    
    
    Chorus…
  • e-|--------------------------------------------------------|
    B-|--------------------------------------------------------|
    G-|---------------555-7--------------555-7-----------------|
    D-|--777777777777-555-7-777777777777-555-7-777777777777----|…
  • Verse: Just keep playing A, then B on the E string.
    
    
    Pre-Chorus:
    
    A ------------------------------------------------0--2-3-55-7--
    
    E --1---1-1---1---1---1-1---1---1---1-1---1---1----------------
    
    A ------------------------------------------------0--2-3-55-7--
    
    E…
  • Verse
    
    G:---------------------------------------------------------------
    D:---------------------------------------------------------------
    A:---------88--77--------------------------------------------
    E:---5555-----------5555--88-7-8---------------------------------
    
    
    Last…
  • INTRO X2
    A-----------------|--------------------------------------------|
    B-----------------|--------------------------------------------|
    G---7-7-7--5-5-5--|--------------------------------------------|
    D---7-7-7--5-5-5--|--2--2-0------------------------------------|
    A---5-5-5--3-3-5--|--2-----------3-3-3-2-----------------------|
    E-----------------|--0-------3-3---------3---------------------|
    
    
    VERSE…
  • INTRO:
    G-----12-14-12------12-14-12--------------------
    D--14-----------14-----------14-12-10-10--------
    A-----------------------------------------------
    E-----------------------------------------------
    
    G-----------------------12-14-12----12-14-12--------------
    D--10-10---10-10-12--14----------14----------14-12-10-10--
    A---------------------------------------------------------
    E---------------------------------------------------------
    
    
    VERSE:
    G-------------------------------------------------------
    D-----3--7--5-----3-----5-----3--7--5-----3-----3--5----
    A--3-----------3-----5-----3-----------3-----5----------
    E-------------------------------------------------------
    
    
    CHORUS:
    G---------------------------------------------------
    D-----3--2---3--2------5-7-5----5-7-5---------------
    A--3-------3---------7--------5-------7--5--3-3-----
    E---------------------------------------------------
    
    G----------------------------------------
    D----------5-7-5---5-7-5-----------------
    A--3-3-5-7-------7--------7-5-3-3--------
    E----------------------------------------
    
    
    2ND…
  • Intro: Play 3x
    
    E|---------------------------------|
    B|---------------------------------|
    G|---------1111--11-----------777--|
    D|--77--11-1111--11-1111--11--777--|
    A|--77--11--9-9---9--8-8---8--555--|
    E|--55---9-------------------------|
    
    
    Verse:
    
    (Another…
  • INTROx4 [on last time dont play the 7>9]
    G]-----------7H9--]
    D]----------------]
    A]----------------]
    E]00-0-0-0-0------]
    
    
    BRIDGEx1
    G]--------|--------|--------]
    D]--------|--------|--------]
    A]----5>--|----3>--|2>--3>--]
    E]3>------|3>------|--------]
    
    
    VERSEx4
    G]--------------------|------------------]
    D]--------------------|------------22-44-]
    A]----------2222------|55-575-3333-------]
    E]3333-5555------3333-|------------------]
    
    
    CHORUSx1
    G]-----------7H9--|---------------|--------------]
    D]----------------|---------------|--------------]
    A]----------------|-----2----3----|--------2-2-3-]
    E]00-0-0-0-0------|3--------------|3>--2>--------]
    
    
    VERSE
    
    CHORUS
    
    
    INTERLUDE
    G]--------------------|-----------------------------|------]
    D]--------------------|-----------------------------|------]
    A]2-2-2-2-3-3-3-3-----|2-2-2-2-0-0-0-0----787----787|2>-3>-]
    E]----------------3>--|----------------00-----00----|------]
    
    
    INTRO
    
    BRIDGEx2
    
    VERSE
    
    CHORUSx2
    
    
    OUTROx3
    G]--------------]
    D]--------------]
    A]--------2-2-3-]
    E]3>--2>--------]
    
    
    ENDING
    G]12-11----12-11-12------]
    D]-----12----------------]
    A]-----------------------]
    E]------------------0----]…
Наверх