Аккорды «ДРЫНк»

ДРЫНк
Группа "ДРЫНк" образована в 1992 г. в городе Краснодаре студентами института культуры Евгением Кузёминым и Рубеном Казарьянцем. В основе союза (пока без названия) в тот момент лежало меркантильное желание улучшить материальное состояние за счет "чеса" на местном "Арбате" "на шляпу". Специально по этому поводу была написана "частушечная программа" и группа в составе вокалиста-гитариста и вокалиста-гармониста предстала перед праздно шатающейся публикой… Читать полностью... Группа "ДРЫНк" образована в 1992 г. в городе Краснодаре студентами института культуры Евгением Кузёминым и Рубеном Казарьянцем. В основе союза (пока без названия) в тот момент лежало меркантильное желание улучшить материальное состояние за счет "чеса" на местном "Арбате" "на шляпу". Специально по этому поводу была написана "частушечная программа" и группа в составе вокалиста-гитариста и вокалиста-гармониста предстала перед праздно шатающейся публикой города. Официальный сайт группы: www.drynk.ru Скрыть...
Популярные аккорды ДРЫНк:
алфавиту | просмотрам | случайно
  • C      G         Am                                            
    e-0--------------3----------------------0----------------
    h-1--------------0---------------1-------------0---------
    g|--------0-------0------0-------0-------2-------2------2-----2------
    d--------------------------------------------------------
    a|----3------------------------------0-------------------------------
    e---------3----------------------------------------------…
  • Intro:
                  Am               Am                Am F  G  C
    1---------------------------------------1--3----
    2--1----------------1----------------1--1--3--1-
    3--2----------------2----------------2--2--4----
    4|7------------2---7------------2---7------------2--3--5--2-
    5|---8--7----5--------8--7----5--------8--7----5----3--5--3-
    6---------------------------------------1--3----…
  • Intro :                  C                          C
    e------------0-0-0-0-0-0----3---5---8---0-0-0-0-0-0-----812----10----8------
    --
    h------------0-0-0-0-0-0----------------0-0-0-0-0-0--------------------------
    --
    g------------1-1-1-1-1-1----------------1-1-1-1-1-1----------------------------
    d------------2-2-2-2-2-2----------------2-2-2-2-2-2--------------------------
    --
    a|---------0---2---3-----3-3-3-3-3-3----------------3-3-3-3-3-3--------------------------
    --
    e|-----3-----------------3-3-3-3-3-3----------------3-3-3-3-3-3--------------------------
    --
    
    C
    Плечики,…
  • E
    I am seating on the chair
    E
    I am eating yellow cheese
    A
    I am looking TV set
    E
    I want sleeping in my bed
    H              A               E
    And my mother with my father glad 
     
    I am seating on the cheese 
    I am eating yellow…
  • Am Em   F       G  Am Em   F      G
    Я видел их в кино, я их хотел давно.
    Am  Em    F  G     Am Em   F  G   |Am-Em-F-G|
    Мысли полночные, плотные,прочные Джинсы!
    				 Джинсы!
    Удобны, хороши. Хочешь пой, хоч пляши,
    Хоч стой,…
Наверх