Аккорды «Earshot»

Earshot
Earshot образовались в "далёком" 1999 году и только спустя 3 года представили на суд публики свой дебютный альбом - Letting Go. Earshot в переводе означает - "на расстоянии слышимости". Учитывая то, что релиз был выпущен на Warner, можно с уверенностью утверждать, что лейбл имел вполне резонные основания полагать, что альбом будет успешным. В итоге так и получилось. Трек Headstrong был выбран для звучания в саундтреке к фильму "Queen of the Damned", что прибавило ещё пару-тройку поклонников группе.… Читать полностью... Earshot образовались в "далёком" 1999 году и только спустя 3 года представили на суд публики свой дебютный альбом - Letting Go. Earshot в переводе означает - "на расстоянии слышимости". Учитывая то, что релиз был выпущен на Warner, можно с уверенностью утверждать, что лейбл имел вполне резонные основания полагать, что альбом будет успешным. В итоге так и получилось. Трек Headstrong был выбран для звучания в саундтреке к фильму "Queen of the Damned", что прибавило ещё пару-тройку поклонников группе. Резюме данному альбому - весьма крепкий релиз, без особой доли оригинальности, но с весьма специфическим звучанием, качественным звуком и грамотным промоушеном. Скрыть...
Популярные аккорды Earshot:
алфавиту | просмотрам | случайно
  • Drop Db:
    Db Ab Db Gb Bb Eb
    
    
    Intro: Riff A
    
    e-----------------------------------------------------------------
    b-----------------------------------------------------------------
    g-----------------------------------------------------------------
    d-12------10------7----------12------10------7--------------------
    a--x-------x------x-----------x-------x------x--------------------
    d-12------10------7----------12------10------7---------------7/---
    
    
    Verses:…
  • 0:00                         3x           I CAN WAIT (0:38)                
    E||----------------------|--------------||--------------------|
    B||----------------------|--------------||--------------------|
    G||----------------------|--------------||--------------------|
    D||----------------------|--------------||---2----------------|
    A||--7--2--------7--2----|--------0--2--||---0----------------|
    D||--7--2--------7--2----|--------0--2--||---0----------------|…
  • Dropped Db (dropped D tuned down 1/2 a step)
    eb|------------------------------------------------------------------|
    Bb|------------------------------------------------------------------|
    Gb|--12-12-12-12----12-12-12-12----8-8------15-15-15-15---14-14-14-14|
    Db|------------------------------------------------------------------|
    Ab|-10----------------------------6-------13-------------------------|
    Db|------------------------------------------------------------------|
    
    eb|------------------------------------|
    Bb|------------------------------------|
    Gb|------------------------------------|
    Db|-11111-111-111-55555-777-888--------|
    Ab|-11111-111-111-55555-777-888--------|
    Db|-11111-111-111-55555-777-888--------|…
  • Verse:
    ------------------------------------------------------------
    ------------------------------------------------------------
    ------------------------------------------------------------
    --3-4---0---6-4---------------------------------------------
    --3-4---0---6-4---------------------------------------------
    --3-4---0---6-4---------------------------------------------
    
    
    Chorus:
    ------------------------------------------------------------
    ------------------------------------------------------------
    ---5------3------x-----3------------------------------------
    ---3------1------0-----1------------------------------------
    ---3------1------0-----1------------------------------------
    ---3------1------0-----1------------------------------------…
  • Verse:   (Palm Muted)
    eb|--------------------|--------------------|--------------------|-----------------|
    Bb|--------------------|--------------------|--------------------|-----------------|
    Gb|--------------------|--------------------|--------------------|-----------------|
    Db|-0h22-22-x-2-2-5h77-|-0h22-22-x-2-2-5h77-|-0h11-11-x-1-1-3h55-|-0h22-x-2-2-5h77-|
    Ab|-0h22-22-x-2-2-5h77-|-0h22-22-x-2-2-5h77-|-0h11-11-x-1-1-3h55-|-0h22-x-2-2-5h77-|
    Db|-0h22-22-x-2-2-5h77-|-0h22-22-x-2-2-5h77-|-0h11-11-x-1-1-3h55-|-0h22-x-2-2-5h77-|
    
    
    Chorus:
    eb|---------------------------|
    Bb|---------------------------|
    Gb|---------------------------|
    Db|-0h230-5p0-0-3p0-0-20-2h33-|
    Ab|-0h230-5p0-0-3p0-0-20-2h33-|
    Db|-0h230-5p0-0-3p0-0-20-2h33-|
    
    End…
  • Tuning: Dropped D
    
    
    Intro x2
    E----------------------------------------------------------------|
    G----------------------------------------------------------------|
    B------------------------------------------------------0---------|
    D--1/0-1/2-1/0-1/2-1/0-1/0-0---1/0-1/2-1/0-1/2-1/0-1/0-----------|
    A----------------------------------------------------------------|
    D----------------------------------------------------------------|
    
    Distorted…
Наверх