Аккорды «Earthtone9»

Earthtone9
Альтернативно-металичиская группа из Ноттингема, Британия. Альтернативно-металичиская группа из Ноттингема, Британия. Скрыть...
Популярные аккорды Earthtone9:
алфавиту | просмотрам | случайно
  • -|----------------------------------------------------------------------------|
    -|----------------------------------------------------------------------------|
    -|----------------------------------------------------------------------------|
    -|----12-----12-----14-----14-----14-12-----12-----12-----14-----15-----15-14-|
    -|0-0----0-0----0-0----0-0----0-0-------0-0----0-0----0-0----0-0----0-0-------|
    -|----------------------------------------------------------------------------|…
  • -|------------------------------------|---------------------------------------|
    -|------------------------------------|---------------------------------------|
    -|-8-8-8-7v-7-8-8-8-7v-7--------------|---------------------------------------|
    -|-0-0-0-0--0-0-0-0-0--0--------------|---------------------------------------|
    -|------------------------------------|---------------------------------------|
    -|-----------------------1-1-1-1------|-1-1-1-1-------------------------------|…
  • -|----------------------------------------------------------------------------|
    -|----------------------------------------------------------------------------|
    -|----------------------------------------------------------------------------|
    -|----------------------------------------------------------------------------|
    -|----------------------------------------------------------------------------|
    -|-0-0-12p0-13p0-0-12p0-13p0-12p0-0-13h15-0-0-12p0-13p0-0-12p0-13p0-0-18b-----|…
  • Intro = high pitch feedback
              Drums enter.......
              e|---------------------------------------------------
              B|-20-------14--------------------/9=~slowly bend----
              G|---------------------------------------------------…
  • -|----------------------------------------------------------------------------|
    -|----------------------------------------------------------------------------|
    -|----------------------------------------------------------------------------|
    -|----------------------------------------------------------------------------|
    -|----------------------------------------------------------------------------|
    -|-15^-15^-15^-12^-15^-15^-15^-12^-15^-15^-15^-12^-15^-15^-15^-12^-3^---------|…
  • -|-----------------------------------------------------------------------------|
    -|-----------------------------------------------------------------------------|
    -|-----------------9--10--9--13--9--10--9--13----------------------------------|
    -|-----------------------------------------------------------------------------|
    -|-----------------------------------------------------------------------------|
    -|-----------------------------------------------------------------------------|…
  • Tuning: (C/F/A#/D#/G/C)
                         
              Intro/Verse: x4
              |-------------------|-------------------------|
              |-------------------|-------------------------|
              |-------------------|-------------------------|…
  • -|----------------------------------------------------------------------------|
    -|----------------------------------------------------------------------------|
    -|----------------------------------------------------------------------------|
    -|-----------------------------------------2----------------------------------|
    -|-----------------------------------------2----------------------------------|
    -|-0-2-2p0-2-3v-0-2p0-2-0-2-5-0-2-2p0-2-3v-0----------------------------------|…
  • Tuning: tuned down 2 whole steps (c/f/a#/d#/g/c)
             
              ~,()=Bend
              /   =Slide
              
              
              Intro:
              |---------|--------|---------|-----------|----------
              |---------|-12~...-|---------|-12/14~...-|----------…
Наверх