Аккорды «Easyworld»

Easyworld
Easyworld - британская музыкальная группа, которая исполняет песни в стиле инди, альтернативный рок-поп. Участники группы: David Ford (вокалист), Jo Taylor (бас) и Glenn Hooper (барабанщик). С середины 90-х годов Ford и Glenn играли вместе в нескольких маленьких рок-группах, таких как Sixteen & Sheadly и Sweater. После одного концерта Sheadly басист Jo Taylor подошел к группе и сказал, что они нуждаются в ней, как в хорошем басисте. Прошло несколько лет и Sheadly распалась, и снова Ford и Hooper… Читать полностью... Easyworld - британская музыкальная группа, которая исполняет песни в стиле инди, альтернативный рок-поп. Участники группы: David Ford (вокалист), Jo Taylor (бас) и Glenn Hooper (барабанщик). С середины 90-х годов Ford и Glenn играли вместе в нескольких маленьких рок-группах, таких как Sixteen & Sheadly и Sweater. После одного концерта Sheadly басист Jo Taylor подошел к группе и сказал, что они нуждаются в ней, как в хорошем басисте. Прошло несколько лет и Sheadly распалась, и снова Ford и Hooper искали новых членов своей группы, помещая объявления об открытии вакансии на витрине одного местного музыкального магазина. По иронии судьбы Jo Taylor выбрал рекламу и была сформирована новая музыкальная группа Beachy Head. После записи нескольких демонстрационных песен и неизданного альбома трио вновь переименовали группу в Easyworld после лирического отступления в своей песне "Better ways to self Destruct". Новая группа подписала контракт с компанией Fierce Panda и издала их дебютный мини-альбом под названием "Better ways to self Destruct", хотя одноименной песни в альбоме не было. Главный сингл мини-альбома был "Hundredweight".В 2002 году группа Easyworld подписала контракт с компанией Jive Records и издала 2 альбома: "This is where I stand" и "Kill the last Romantic". В 2004 году группа распалась. Скрыть...
Популярные аккорды Easyworld:
алфавиту | просмотрам | случайно
  • Tuning:standard
    
      [verse 1]
    e|3------------------------5-------------------7----------2-------------3----|
    B|3------------------------7-------------------8----------3-------------5----|
    G|4------------------------7-------------------9----------4-------------5----|
    D|5------------------------7-------------------9----------4-------------5----|
    A|5------------------------5-------------------7----------2-------------3----|
    E|3------------------------5-------------------7----------2-------------3----|…
  • INTRO  (X4)
    g ----------------------------------!
    d -----0-----0-0---------1----1-1---!
    a -1-1----11-------1-1-1----11------!
    e ----------------------------------!
    
    VERSE 
    g ----------------------------------!
    d -----0-----0-0---------1----1-1---!…
  • Intro
    	play 3 times
    g----------------------------------!
    d----------------------------------!
    a-7-7------------------------------!
    e------5-5-5--7-7-6-5--5-5h7-5-----!
    	then play once:
    g----------------------------------!
    d------7-7-7--9-9-8-7--7-7h9-7-----!
    a-7-7------------------------------!
    e----------------------------------!
    
    Verse
    g----------------------------------!
    d--6-------------------------------!
    a-7-7--------------------5-7-------!
    e-----5h4-5--7-7-6-5--7-7----------!
    
    g----------------------------------!
    d--6-------------------------------!
    a-7-7--------------0h12-0h12-------!
    e-----5h4-5--7-7-6-----------------!
    
    g----------------------------------!
    d--6-------------------------------!
    a-7-7--------------------5-7-------!
    e-----5h4-5--7-7-6-5--7-7----------!
    
    g----------------------------------!
    d--6----7h6-7-6--9-9-8-7-(7-7h9-7)-!
    a-7-7------------------------------!
    e----------------------------------!
    
    Chorus
    g-----------------------------!
    d--6---7h6-7-6-7--------------!
    a-7-7-------------------------!
    e----------------7-7-6-5--555-!
    
    g----------------------------!
    d--6---7h6-7-6---------------!
    a-7-7----------7-------------!
    e----------------7-7-6-5-555-!
    
    g---------------------------------!
    d--6---7h6-7-6--------------------!
    a-7-7----------7------------------!
    e----------------7-7-6-5--5-5h7-5-!
    
    g---------------------------------!
    d--6---7h6-7-6-7--9-9-8-7--7-7h9-7!
    a-7-7-----------------------------!
    e---------------------------------!
    
    
    Bridge…
  • riff 1
    
    e---------------------------------|
    B---------------------------------|
    G-9-9-9-9-9-9-9-9-8-8-8-8-8-8-8-8-|
    D---------------------------------|
    A-7-7-7-7-7-7-7-7-6-6-6-6-6-6-6-6-|
    E---------------------------------|
    
    e-------------------------------------------------|
    B-------------------------------------------------|
    G-14-14-14-14-14-14-14-14-12-12-12-12-12-12-12-12-|
    D-------------------------------------------------|
    A-12-12-12-12-12-12-12-12-10-10-10-10-10-10-10-10-|
    E-------------------------------------------------|
    
    e---------------------------------|
    B---------------------------------|
    G-9-9-9-9-9-9-9-9-8-8-8-8-8-8-8-8-|
    D---------------------------------|
    A-7-7-7-7-7-7-7-7-6-6-6-6-6-6-6-6-|
    E---------------------------------|
    
    e-------------------------------------------------|
    B-------------------------------------------------|
    G-14-14-14-14-14-14-14-14-14-14-12-12-14-14-12-12-|
    D-------------------------------------------------|
    A-12-12-12-12-12-12-12-12-12-12-10-10-12-12-10-10-|
    E-------------------------------------------------|
    
    riff…
  • This is the bass line for the song, but only up untill the key change. All in bars of 4/4
    Guitar chords have been placed above the bars, so they can play along.
    
    Symbols:
    |:-----:| ***  Repeat
    (/)       ***  Bend this note.
    
    Intro.
    Same…
  • INTRO/VERSE/OUTRO
    g---------------!-------4----!------4-3-------------!
    d----------2----!---------2--!----1-----4-----4-2---!
    a--4-----4---0--!--0--4------!--2---------4-------6-!
    e------4--------!------------!----------------------!
    dont…
  • It's fairly simple, the main riff is repeated throughout with varying degrees of
    distortion/overdrive, I reckon its just A, c#, F# and D if you slide up the E string
    like this:
    
    e-----------------------------------------------------------------------------------|
    B-----------------------------------------------------------------------------------|
    G-----------------------------------------------------------------------------------|
    D--7---7--7--11-11-11-11--4---4--4---12--12--12--12---------------------------------|
    A--7---7--7--11-11-11-11--4---4--4---12--12--12--12---------------------------------|
    E--5---5--5--9--9--9--9---2---2--2---10--10--10--10---------------------------------|…
  • Intro
    
    Play with these chords
    
    e-9--10-9---2-3-2---------------------------------------------|
    B-10-10-10--3-3-3---------------------------------------------|  then after a few times
    G-9--9--9---2-2-2-…
  • Intro
    
    e---------------------|
    B---------------------|
    G-11b12r11---11b12r11-|
    D----------0----------| a few times
    A---------------------|
    E---------------------|
    
    riff 1
    e-------------------------------------|
    B-------------------------------------|
    G-11-11-11-11-6-6-6-6-0-0-0-0-0-0-9-9-|
    D-0--0--0--0--0-0-0-0-0-0-0-0-0-0-0-0-|…
  • Cdim(inished) x45353 like C7 but with the 2nd finger on the Astring 4th fret
    
    
    Intro
    
    Chords and Dmin and A
    e-------------------------------------------------|
    B-6-5-6-6b8r6-5--6-5-6-6b8-5--6-5-6-6b8r6-5-------|
    G-------------------------------------------7-7/9-|
    D-------------------------------------------------|
    A-------------------------------------------------|
    E-------------------------------------------------|
    
    
    Verse…
  • Capo on 2nd fret
    
    these are the main riffs... sorta. variations on these are played throughout
    the song. sometimes where a part is more intense picking stops and chords are
    played instead but improvise your own version…
  • Picking Riff
    
    -----0-----------|
    -------2-----0---|
    ---------------3-|
    ---4-------------|
    -2---------4-----|
    ---------2-------|
    
    
    Intro
    
    Repeat picking riff
    
    
    Verse 1
    
    picking riff repeated
    
    now youll…
  • Intro
    
    A       F#min x2
    
    A       F#min x2
    e-----5-----2-|
    B---5-----2---|
    G-------------|
    D-7-----4-----|
    A-------------|
    E-------------|
    
    F#min   G#min
    
    
    Verse
    
    A
    play back this
    B
    tape i swear you'll
    E
    see…
  • riff
    e--------------------------------------------|
    B--------------------------------------------|
    G--------------------------------------------|
    D-4--4--4-4--5--5--5-5--6--6--6-6--7--7--7-7-|
    A-5--5--5-5--5--5--5-5--5--5--5-5--5--5--5-5-|
    E--------------------------------------------|
    
    
    Intro
    
    riff…
  • Fmaj9
    E-0
    B-1
    G-0
    D-3
    A-3
    E-x
    
    riff 1
    
    e-----3-------3-------3-------3-2-----2-------2-------2-------2-3-|
    B---3---3---3---3---3---3---3-------3---3---3---3---3---3---3-----|
    G-0-------0-------0-------0-------0-------0-------0-------0-------|
    D-----------------------------------------------------------------|
    A-----------------------------------------------------------------|
    E-----------------------------------------------------------------|
    
    
    riff…
  • Verse 1
    
    -------------------7-----|
    -------7---------8---8---|
    -----7---7-----7-------7-|
    ---7-------7-9-----------|x2
    -5-----------------------|
    -------------------------|
    
    ---------------------9------------7-------------9------|
    -------7----------10---10-------8---8--------10---10---|
    -----7---7------9---------9---7-------7----9---------9-|
    ---7-------7-11-------------9-----------11-------------|
    -5-----------------------------------------------------|
    -------------------------------------------------------|
    
    
    Hey…
  • riff 1
    
    the specific notes hit is relatively loose just realise im trying to point out where to
    play the low and high strings differently
    here where the notes are very close together u "rake" the notes i.e. you strum…
  • Verse 1
    
    Cmin
    Words like violence
    Ebmin
    Break the silence
    G#
    Come crashing in
    Into my little world
    Cmin
    Painful to me
    Ebmin
    Pierce right through me
    G#
    Can't you understand
    Oh my little girl
    
    
    Chorus
    
    Fmin
    All…
  • Intro:
    
    e|-------------------------------------------------------------------|
    B|-------------------------------------------------------------------|
    G|-5---5----x---x---x---x--------------5-----------------------------|
    D|-5---5----x---x---x---x---X11--------5-----------------------------|
    A|-3---3----x---x---x---x--------------3-----------------------------|
    E|-------------------------------------------------------------------|
    
    Verse:
    
    e|-------------------------------------------------------------------|
    B|-------------------------------------------------------------------|
    G|-5---5----x---x---x---x----------------5---5----x--x--x--x---------|
    D|-5---5----x---x---x---x----X16---------5---5----x--x--x--x-X16-----|
    A|-3---3----x---x---x---x----------------3---3----x--x--x--x---------|
    E|-------------------------------------------------------------------|…
  • main riff play each chord 8 times
    e-------------------------------------------------
    b-------------------------------------------------
    g-(1)---------------------------------------------
    d--2-------9-------6-------7----------------------
    a--2-------9-------6-------7----------------------
    E--0-------7-------4-------5----------------------
    
    chorus…
  • A/C x30210
    F7M   x33210
    
    A       D       Bmin    E
    A       D       Bmin    E
    
    A                       D
    hey its been a while
                    Bmin            
    since we took yr car
            E
    and parked it by the…
  • E A E A
    
    
    E                               A
    oh take a long hard look at the rain
        E                          A
    don't wanna talk about it over again
      E                              A
    a little time spent deleting…
  • Intro
    
    E----------------------------------------------------|
    A-3-3-x-x-x-3-3-x-x-x-3-3-x-x-x----------------------|
    D-5-5-x-x-x-5-5-x-x-x-5-5-x-x-x----------------------|
    G-5-5-x-x-x-5-5-x-x-x-5-5-x-x-x----------------------|
    B----------------------------------------------------|
    e----------------------------------------------------|
    
    Where…
  • standard tuning
    
    intro/verse
    e---0--------2------0-0-0------0--------0------
    b-0---0----0---0-------------4---0----0---0----
    g----------------------------------------------
    d----------------------------------------------
    a----------2--------4--------2--------0--------
    E-0--------------------------------------------
    
    e-----------0--------0---0--------------0-----
    b---------0---0----0---0--------------0---0---
    g-------2---------------------------1---------
    d-----2---------------------------2-----------
    a---0---------------------------2-------------
    E-2----------------0----------0---------------
    
    chorus
    e-0-0-0----0-0-0------0-------0-
    b-------------------0---0---4---0
    g--------------------------------
    d--------------------------------
    a-4--------4--------2-------2----
    E--------------------------------
    
    e-0-0-0----0-0-0--------0------------------
    b-------------------0-0---0----0-----------
    g------------------------------------------
    d------------------------------------------
    a-4--------4--------0----------0-----------
    E-------------------------------------5/---
    
    e-----0----------2----------0-0------0-0--
    b-0-0---0----0-0---0----4-4--------4------
    g-----------------------------------------
    d-----------------------------------------
    a------------2----------4----------2------
    E-0---------------------------------------
    
    e---0----------------0--------0---0-----------0---
    b-0---0------------0------0-0---0-----------0---0-
    g----------------2------------------------1-------
    d--------------2------------------------2---------
    a-0----------0------------------------2-----------
    E----------2--------------0---------0-------------
    
    solo…
  • INTRO/VERSE
    g ---------------------------!
    d----------------------------!
    a -----------2/33333-222-----!
    e 33333333-------------------!
    
    CHORUS INTRO
    and noone gives a shit....
    g -----------!
    d -----------!
    a 0-----0----!
    e…
  • Intro
    
    From what I can tell this is whats being played through the intro and verses
    
    -----------------------------|
    -----------------------------|
    -2-2-6-6-6---6---------------|
    -2-2-6-6-6h7-6-2-2-6-6-6---6-|
    -0-0-7-7-7---7-2-2-6-6-6h7-6-|
    ---------------0-0-7-7-7---7-|
    
    
    Verse…
  • Intro
    
    played with a slide on the 7th and 5th frets
    ------------------------------|
    ------------------/7-7----5\--|
    ------------------/7---7--5\--|
    -2-----0------2-----------5\--|
    -2-----2--0h2-----------------|
    -0---2-3----------------------|
    
    
    Verse
    
    (intro…
  • standard tuning
    
            E A D G B E
    G:      3 2 0 0 0 3
    Cadd9:  x 3 2 0 3 0
    D:      x 0 0 2 3 2
    D7:     x 0 0 2 1 2
    A7sus4: x 0 2 0 3 0
    Em7:    0 2 2 0 3 0
    
    Intro: repeat G. Cadd9.
    
    Verse 1: 
    
     G…
  • riff
    e--------------------------------------------|
    B--------------------------------------------|
    G-9-9-9-9-9--9-9-9-9-9--8-8-8-8-8--8-8-8-8-8-|
    D--------------------------------------------|
    A-7-7-7-7-7--7-7-7-7-7--6-6-6-6-6--6-6-6-6-6-|
    E--------------------------------------------|
    
    e----------------------------------------------|
    B----------------------------------------------|
    G-6-6-6-6-6--6-6-6-6-6--5-5-5-5-5--5-5-5-5-5-4-|
    D----------------------------------------------|
    A-4-4-4-4-4--4-4-4-4-4--3-3-3-3-3--3-3-3-3-3-2-|
    E----------------------------------------------|
    
    
    Intro
    
    repeated…
  • INTRO
    g------!------------------!------------------------------!
    d------!-5--3--2----------!------------------------------!
    a--0---!---------5--4--0--!--0--2--3-3-3-3-3--5-5-5-5-5--!
    e------!------------------!------------------------------!
    
    g-------------------------------!--------------------------------5-!
    d--5h7--7--7--7--5--7--5--------!-5--5h7--7--7--7--5--7--5--5--5---!
    a-------------------------7--7--!----------------------------------!
    e-------------------------------!----------------------------------!
    
    g--5h7--7--7--7--5--7--5--------!--4--5-5-5-5--7-7-7-7--!
    d-------------------------7--7--!-----------------------!
    a-------------------------------!-----------------------!
    e-------------------------------!-----------------------!
    
    g-------------------------------!
    d--5h7--7--7--7--5--7--5--------!
    a-------------------------7--7--!
    e-------------------------------!
    
    VERSE…
  • Example to show what the guitar parts does in between E5 and C chord
    G---------------5-5-7-7-7--|
    D-5-5-4-2-------5-5-7-7-7--|
    A-5-5-4-2-------3-3-5-5-5--|
    E-3-3-2-0-0-3-0------------|
    
    Intro
    
    G5      F#5     E5…
  • intro/chorus
    g--------------------2----------------------------
    d---------2--0--2--4------------------------------
    a-0--2--4-----------------------------------------
    e-------------------------------------------------
    
    verse…
  • main riff
    e-------------------------------------------------------
    b-12--12--12--12-----10—-10--10--11-----12--12--12—-12--
    g---12--12--12--12-----11--11--11--12-----12—-12—-12-—12
    d-------------------------------------------------------
    a-------------------------------------------------------
    e-------------------------------------------------------
    
    e---------15---------------
    b-13--13------13-----------
    g---12--12--12--12---------
    d--------------------------
    a--------------------------
    E--------------------------
    
    chorus…
Наверх