Аккорды «Ebba Grön»

Ebba Grön
Ebba Grön - шведская панк-группа, образованная в Стокгольме в 1977 г. Группа состояла из Joakim Thåström (вокал, гитара), Gunnar Ljungstedt (ударные) и Lennart Eriksson (бас-гитара, бэк-вокал). Thåström, Ljungstedt и Eriksson также известны, как Pimme, Gurra и Fjodor. После выхода второго альбома в 1981 г. к ним присоединился четвертый участник - клавишник Anders Sjöholm, также известный как Stry Terrarie. Группа распалась в 1983 г. Ebba Grön - шведская панк-группа, образованная в Стокгольме в 1977 г. Группа состояла из Joakim Thåström (вокал, гитара), Gunnar Ljungstedt (ударные) и Lennart Eriksson (бас-гитара, бэк-вокал). Thåström, Ljungstedt и Eriksson также известны, как Pimme, Gurra и Fjodor. После выхода второго альбома в 1981 г. к ним присоединился четвертый участник - клавишник Anders Sjöholm, также известный как Stry Terrarie. Группа распалась в 1983 г. Скрыть...
Популярные аккорды Ebba Grön:
алфавиту | просмотрам | случайно
  • Intro: 4x
    
    e|------------------|
    b|------------------|
    g|------------------|
    d|--------79-11-79--|
    a|--77-79-79-9--79--|
    E|--55-79-----------|
    
    
    Verse: 4x
    
    e|------------------|
    b|------------------|
    g|------------------|
    d|--------79-11-79--|
    a|--77-79-79-9--79--|
    E|--55-79-----------|
    
    
    Pre…
  • Standard tuning
    
    
    Verse:
    e-------------------------------------
    b-------------------------------------
    g-------------------------------------
    d-------------------------------------
    a-777777777777777--33333333--55555555-
    E-555555555555555--11111111--33333333-
    
    
    Chorus:
    e--------------------------------------------------------------------
    b--------------------------------------------------------------------
    g--------------------------------------------------------------------
    d---------------------------------------55555555------------77777777-
    a-7777777777777777--33333333--55555555--33333333--33333333--55555555-
    E-5555555555555555--11111111--33333333------------11111111-----------
    
    e-------------------------------------------------------------------
    b-------------------------------------------------------------------
    g-------------------------------------------------------------------
    d-----------55555555------------55555555------------5555555555555555
    a-55555555--33333333--55555555--33333333--55555555--3333333333333333
    E-33333333------------33333333------------33333333------------------
    
    
    right…
  • Tuning: Normal
    
    
    Intro:
    E--12--12--12--12--12--12--12--12--12--12--12--12-|
    B--12--12--12--12--12--12--12--12--12--12--12--12-|
    G-------------------------------------------------|
    D-------------------------------------------------|
    A-------------------------------------------------|
    E-------------------------------------------------|…
  • Am                     Em  G                     Am  
    Halt! Här får ingen passera, här kommer ingen förbi. 
                               Em      G             
    Du kommer aldrig över nåt mera så gå är du snäll…
Наверх