Аккорды «Elastica»

Elastica
ЭЛАСТИКА (Elastica), английская рок-группа, играющая музыку в стилях брит-поп и панк-поп. Основана в 1992. Первоначальный состав: Джастин Фришманн (Justine Frischmann) (вокал, гитара); Донна Мэттьюз (Donna Matthews) (гитара); Джастин Уэлш (Justin Welch) (ударные); Энни Холланд (Annie Holland) (бас-гитара). Группу основала Джастин Фришманн, ушедшая в 1991 из основанной ею же совместно со своим бойфрендом Бретом Андерсоном (Brett Anderson) группы SUEDE. Найдя по объявлениям Мэттьюз, Уэлш и Холланд,… Читать полностью... ЭЛАСТИКА (Elastica), английская рок-группа, играющая музыку в стилях брит-поп и панк-поп. Основана в 1992. Первоначальный состав: Джастин Фришманн (Justine Frischmann) (вокал, гитара); Донна Мэттьюз (Donna Matthews) (гитара); Джастин Уэлш (Justin Welch) (ударные); Энни Холланд (Annie Holland) (бас-гитара). Группу основала Джастин Фришманн, ушедшая в 1991 из основанной ею же совместно со своим бойфрендом Бретом Андерсоном (Brett Anderson) группы SUEDE. Найдя по объявлениям Мэттьюз, Уэлш и Холланд, она основала еще один «брит-поповый» проект, но уже с сильным уклоном в сторону традиционного панка. В 1993 группа выпустила свой дебютный «трехаккордный» сингл Stutter. Он был выпущен ограниченным тиражом и, получив активную поддержку радиостанций и музыкальных обозрений, быстро разошелся. Вслед за ним последовал Line Up, который также стал хорошо продаваться, хотя некоторые критики обвинили ELASTICA в плагиате (песня до боли напоминала композицию группы WIRE I Am the Fly). Большую часть 1994, хотя группа никак не проявляла себя музыкально, название ELASTICA не сходило со страниц таблоидов и музыкальных изданий — в основном благодаря бурному роману Джастин с фронтменом группы BLUR Дэймоном Олборном (Damon Albarn). А в конце года ELASTICA записала свой самый значительный хит Connection. И снова группу обвинили в заимствовании у WIRE — на сей раз, по мнению последних, был «украден» клавишный рифф из песни Three Girl Rhumba. Накануне марта 1995, когда вышел в свет дебютный альбом ELASTICA, группа предстала перед судом по обвинению в плагиате. К издателям продукции WIRE присоединились их коллеги от имени другой панк-команды — STRANGLERS, заявившие, что в треке нового сингла ELASTICA Waking Up использован рифф из их композиции No More Heroes. Оба обвинения были признаны несостоятельными. Скандал, связанный с судебным процессом, значительно повлиял на коммерческий успех первого альбома ELASTICA, который стал самым быстропродаваемой дебютной работой за всю историю британской популярной музыки, побив рекорд семимесячной давности, принадлежавший группе OASIS и ее альбому «Definitely Maybe». Альбом возглавил британский хит-парад и получил самые доброжелательные отзывы. Песня Connection стала хитом и в США. ELASTICA продолжила свое вторжение на американский рынок, выступив вместо Шинед О'Коннор (Sinead O'Connor) в турне в Лоллапалузе в 1995. Внезапно об уходе из группы объявляет Холланд; для ELASTICA это был серьезный удар. Создание следующего альбома растянулось на целые годы; будущее группы виделось нечетко. Весной 1999 из ELASTICA ушла Мэттьюз, зато вернулась Холланд, приведя с собой гитариста Пола Джонса (Paul Jones) и клавишников Дэйва Буша (Dave Bush) и Мю (Mew). Группа немедленно засела за работу и летом того же выпустила шеститрековый EP. А спустя шесть лет после дебюта, вышел второй альбом ELASTICA «The Menace». Далее группа снова впала в состояние анабиоза и еще через год, выпустив «прощальный» сингл и объявила о своем окончательном распаде. Дискография: ELASTICA (Geffen, 1995), THE MENACE (Atlantic, 2000), THE RADIO ONE SESSIONS (BBC, 2001). Скрыть...
Популярные аккорды Elastica:
алфавиту | просмотрам | случайно
  • Intro/Riff
    G|-------------------------------------------------------------------------|
    D|-------------------------------------------------------------------------|
    A|-------------------------------------------------------------------------|
    E|-2-2-2-2-2-2-2-2--10-10-10-10-10-10-10-10--6-6-6-6-6-6-6-6--3-3-3--------|
    
    
    Riff…
  • Main riff
    
    G|-----------------------------------------------------------------------------------------------------------------------
    
    D|-----------------------------------------------------------------------------------------------------------------------
    
    A|------------------------------------------------------------------------------------------------------------------------
    
    E|----0-0-0-3-4-5-5-5-5-3-5-----------------------------------------------------------------------------------------
    
    This…
  • The bass line is something like this
    
    G|------------------------------------------------------------------------------------------------------------------------
    D|-----------------------------------------3----5----------3----5-----------2---4----------2----4-----------5-----7---
    A|--------5--7----------5---7-----355-----5----5---355---5----5---244---4---4---244---4----4—577----7----7…
  • Riff 1
    
    G|--------------------------------------------------------------------
    D|--------------------------------------------------------------------
    A|----------------4-4-4-4-4-4-4-4-----------------2-2-2-2-2-2-2-2-----
    E|2-2-2-2-2-2-2-2-----------------0-0-0-0-0-0-0-0---------------------
    
    
    Riff…
  • Intro
    G|-----------------------------------------------------------------------------|
    D|-----------------------------------------------------------------------------|
    A|-----------------------------------------------------------------------------|
    E|-6/12-12-12*(repeat)-7-7-7*(repeat)-6/-12-12-12*(repeat)--------------------|
    
    
    Right…
  • G|---------------------------------------------------------------------------|
    D|---------------------------------------------------------------------------| 
    A|-4-4--44-4--*4-4-(**44-4)--44-4--------------------------------------------|
    E|---------------------------------------4-4--44-4--*4-4-(**44-4)--44-4------|
    
    G|---------------------------------------------------------------------------|
    D|---------------------------------------------------------------------------|
    A|-2-2-22-2---*2-2-(**22-2)---22-2-------------------------------------------|
    E|---------------------------------------2-2--22-2--*2-2-(**22-2)--22-2------|
    
    Replace…
  • Chorus:
    G|--------------------------------------|
    D|--------------------------------------|
    A|----------------------------6--5-4-4--|  x2
    E|-6--4-6-6-6--4-6-6-6--4-6-6-----------|
    
    
    Verse: 
    G|------------------------------------------------|
    D|------------------------------------------------|
    A|--------4---------------------4-----6--5-4-4----|…
  • Drum intro
    
    Main Verse
    
    G|----------|
    D|----------|
    A|----------|
    E|---4/9---|
    
    
    Line End
    
    G|-----------------|
    D|-----------------|
    A|-----------------|
    E|---4-4-4---4-4-4-|
    
    
    Verse End
    
    G|-----------------------------------------|
    D|-----------------------------------------|
    A|-----------------------------------------|
    E|---4-4-4---4-4-4---4-4--4-4--4-4-4-4-4-4-|
    
    
    Chorus…
Наверх