Аккорды «Elisa»

Elisa
Элиза Тоффоли родилась в Монфальконе на севере Италии, с детства стала заниматься танцами и пением, брала уроки гитары и в раннем возрасте начала писать песни. В 14 лет она стала участницей группы Seven Roads, играющей блюз и рок, в 16 лет присоединилась к группе Blue Swing Orchestra. В то же время Элиза познакомилась с Катериной Казелли, которая помогла ей записать демонстрационный альбом и отправить его миланскому лейблу Sugar Music. В 18 лет Элиза отправилась в Сан-Франциско, где работала над… Читать полностью... Элиза Тоффоли родилась в Монфальконе на севере Италии, с детства стала заниматься танцами и пением, брала уроки гитары и в раннем возрасте начала писать песни. В 14 лет она стала участницей группы Seven Roads, играющей блюз и рок, в 16 лет присоединилась к группе Blue Swing Orchestra. В то же время Элиза познакомилась с Катериной Казелли, которая помогла ей записать демонстрационный альбом и отправить его миланскому лейблу Sugar Music. В 18 лет Элиза отправилась в Сан-Франциско, где работала над своим дебютным синглом под руководством музыкального продюсера Коррадо Рустичи. 22 сентября 1997 г. увидел свет её первый альбом Pipes & Flowers, ставший в Италии трижды платиновым. Музыку Элизы критики сравнили с творчеством Аланис Мориссетт и группы Sonic Youth. В октябре 1998 г. Элиза отправилась в европейский тур с Эросом Рамаззотти. Все последующие студийные альбомы Элизы неизменно входили в первую десятку итальянского хит-парада. В 2006 г. она выпустила сборник хитов Soundtrack '96-'06, который разошёлся тиражом свыше 600 тысяч копий и стал самым продаваемым альбомом года в Италии. В октябре 2013 г. Тоффоли выпустила свой первый полностью италоязычный альбом, получивший название L'anima vola. Скрыть...
Популярные аккорды Elisa:
алфавиту | просмотрам | случайно
  • INTRO: E E(or E4) F#- G#-7 (x4)
    
    
    E    F#-   G#-7       A                 E  F#-   G#-7
    Hard times flowing and my eyes couldn't see stars shining
         E4           E    F#-     G#-7       A     B
    My heart couldn't feel the…
  • Intro:
    G
    --//--------------10----------------------10--------------10-----|
    ----------12--------------12------10--------------10-------------|
    ------12------12------12------12------12------12------12------12-|
    -----------------------------------------------------------------|
    -----------------------------------------------------------------|
    -----------------------------------------------------------------|
    G
    ------------------10----------------------10--------------10-----|
    --10------12--------------12------10--------------10-------------|
    ------12------12------12------12------12------12------12------12-|
    -----------------------------------------------------------------|
    -----------------------------------------------------------------|
    -----------------------------------------------------------------|
    
    
    Strofa:
    G
    ------------------10----------------------10--------------10-----|
    --10------12--------------12------10--------------10-------------|
    ------12------12------12------12------12------12------12------12-|
    -----------------------------------------------------------------|
    -----------------------------------------------------------------|
    -----------------------------------------------------------------|…
  • INTRO  F  G
    
    
      F                          G
    I don't wanna hear another plastic love song
          F                       G
    And I don't need no more triviality
            Am             G
    Cause I know there is more…
Наверх