Аккорды «Emperor»

Emperor
Emperor — норвежская блэк-метал-группа, основанная в 1991 году и оказавшая значительное влияние на развитие жанра. Ранние альбомы Emperor заложили основу симфонического блэк-метала. Основателями и бессменными участниками Emperor были мультиинструменталист и вокалист Исан (Вегард Сверре Твейтан) и гитарист и бас-гитарист Самот (Томас Хауген). Группа распалась в 2001 году, позднее Исан и Самот неоднократно воссоединялись для концертных выступлений. Исан и Самот познакомились ещё подростками на… Читать полностью... Emperor — норвежская блэк-метал-группа, основанная в 1991 году и оказавшая значительное влияние на развитие жанра. Ранние альбомы Emperor заложили основу симфонического блэк-метала. Основателями и бессменными участниками Emperor были мультиинструменталист и вокалист Исан (Вегард Сверре Твейтан) и гитарист и бас-гитарист Самот (Томас Хауген). Группа распалась в 2001 году, позднее Исан и Самот неоднократно воссоединялись для концертных выступлений. Исан и Самот познакомились ещё подростками на музыкальном семинаре и начали вместе играть в разных группах. Примерно в 1990 году они вместе с бас-гитаристом Видаром Воэром и барабанщиком Торбьёрном Аккерхаугеном основали дет-металическую группу Thou Shalt Suffer. В 1991 году Исан и Самот под впечатлением от музыки Bathory и Celtic Frost основали блэк-металический сайд проект, названный Emperor. Вместе с новым бас-гитаристом Ховардом Эллефсеном, взявшим псевдоним Mortiis, они записали демо-кассету Wrath of the Tyrant. Так как в группе не было ударника, партии ударных записал Самот. К Emperor присоединился барабанщик Бард Эйтун, взявший псевдоним «Фауст», и Самот занял место гитариста. Группа подписала контракт с только что созданным лейблом Candlelight; на нём вышел миниальбом Emperor (позже он был издан на сплите c миниальбомом Hordanes Land других норвежских блэк-металистов Enslaved). После записи миниальбома Mortiis ушёл из группы, переехал в Швецию и начал сольную карьеру. В начале 1990-х норвежские блэк-металисты, включая музыкантов Emperor, объединились вокруг идеолога движения, гитариста Mayhem Евронимуса. Евронимус владел музыкальным магазином Helvete, цокольный этаж которого стал местом сбора «внутреннего чёрного круга», объединённого интересом к сатанизму и неприятием христианства. Члены круга сожгли несколько деревянных церквей в разных городах Норвегии, в поджогах принимали участие Самот и Фауст. Фауст 21 августа 1992 года в Лиллехамере убил случайно встреченного гомосексуала, который предложил уединиться ему в близлежащем лесу. Когда они отошли, Фауст достал нож и нанёс множество ударов. Активное расследование преступлений началось только год спустя, когда широкую огласку получило убийство Евронимуса Варгом Викернесом. Фауст был приговорён к четырнадцати годам за убийство, Самот и новый бас-гитарист Tchort (Терье Шей) были признаны виновными соответственно в поджоге церкви в Хольменколлене и нападении и приговорены к небольшим срокам. На какой-то период времени Исан оставался на свободе единственным из всей группы. В 1994 году на Candlelight вышел дебютный альбом группы In the Nightside Eclipse, записанный в августе 1993 года — до начала уголовного преследования музыкантов. Альбом получил восторженные отзывы критики благодаря удачному вплетению в «грязную» и агрессивную музыки клавишных пассажей и других симфонических элементов, которыми группа была обязана Исану. Во время тюремного заключения Самот продолжал сочинять музыку, обмениваясь с Исаном записями и вместе работая в студии, когда ему позволяли провести время вне камеры. В 1996 году, после досрочного освобождения Самота, вместе с новыми басистом Алвером и ударником Трюмом Торсоном группа записала миниальбом Reverence и — в следующем году — второй полноформатный альбом Anthems to the Welkin at Dusk, на котором группа продолжила двигаться в направлении, взятом на дебютной пластинке. После этого Алвер покинул группу. Новый альбом IX Equilibrium в большей степени нес на себе черты прогрессивного метала и дет-метала и сочинялся с расчётом на интенсивную концертную деятельность. Крен в сторону прогрессивного метала, к которому тяготел Исан, продолжился на последнем альбоме Prometheus: The Discipline of Fire & Demise (2001 год). Из-за разногласий между Исаном и Самотом, предпочитавшим дет-металическое звучание, группа распалась после окончания работы над альбомом. Исан вместе со своей женой создал неоклассический проект Peccatum, а с 2006 года начал выпускать сольные альбомы. Самот и Трюм создали дет-металическую группу Zyklon, которая до своего распада выпустила четыре альбома. Концерт в 2007 году В 2005 году Исан, Самот и Трюм воссоединились на фестивале Inferno в Осло и провели туры в Европе и США в 2006 и 2007 годах, при этом в 2006 году американские концерты прошли без Самота, который не получил визу. В 2007 году было снова объявлено о роспуске Emperor. В 2013 году Исан и Самот объявили о новом воссоединении, приуроченному к двадцатилетию In the Nightside Eclipse, и выступили на нескольких фестивалях в 2014 году. Компанию музыкантам составил Фауст. Скрыть...
Популярные аккорды Emperor:
алфавиту | просмотрам | случайно
  • Tunning E A D G B E
    
       clean.
    e|---------------------------------------------7-----|
    B|-------------------------------------------7---7---|
    G|---11-----9-----8-----9-----11-----9---8h9-------9-|
    D|------9-----9-----9-----9------9-----9-------------|
    A|-7------7-----7-----7-----7------7-----7-----------|
    E|---------------------------------------------------|…
  • Key:
    AFAP=AS FAST AS POSSIBLE
    p=pull-off
    /=slide
    h-hammer-on
    pm=palm mute
    ...=tremelo
    tr=trill
    v=vibrato
    b=bend
    ah=artificial harmonic
    ()=ring out
    
    
    Riff 1:
    --0---0--0---------------------------------------
    --0-----------------------0----------------------
    --9---9--9---/9--11--7----4-----/11--12--v11-v11-
    --9----------------------------------------------
    --7---7--7---/7---9--5----2-----/9---10--v9--v9--
    -------------------------------------------------
    
    Riff…
  • E|-----------------------------------------|
    B|-----------------------------------------|
    G|------------------------9h10--------12h13|
    D|-----------------------------------------|
    A|------------------------7h8---------10h11|
    E|8-7-7-6-8-7-7-6-8-7-7-6-----8-7-7-6------|repeat…
  • INTRO 
    E-|------------------------------------------------------------------|
    B-|------------------------------------------------------------------|
    G-|------------------------------------------------------------------|
    D-|-------2---------3------------2---------3-------------------------|
    A-|--2--2------3--3---------2--2------3--3---------------------------|
    E-|--0---------1------------0---------1------------------------------|…
  • Tuning: Standard
    
    Notation Key
    v: vibrato
    t: tremolo bar
    ^: bend
    .: palm mute
    ~: trill
    p: pull-off
    h: hammer-on
    x: ghost note
    /: slide up
    : slide down
    
    
    Intro 
    Gtr. 1 x4
    e|--------------------------------------|
    B|--------------------------------------|
    G|--------------------------------------|
    D|--6-3-2----7-7/9-9----9/10-10-109-9--|
    A|--6-3-2----5-5/7-7----7/8---8--87-7--|
    E|--4-1-0-------------------------------|
    
    Gtr.…
  • Key:
    p=pull-off
    h=hammer-on
    /=slide
    pm=palm mute
    tr=trill
    ...=tremelo
    vv=vibrato
    hv=horizontal vibrato
    ah=artificial harmonic
    ()=ring out
    
    Riff 1a:(Clean Vocals)
    -----------------------------------------------
    -----------------------------------------------
    -----------------------------------------------
    --/2--------------------/2---------/4--6-------
    -----------6-4--6tr7------------2--------7--2--
    -----3-4-------------------3-4-----------------
    
    Riff…
  • / means slide
    h means hammering
    
    
    
    For this song put your amp like this 
           |     /     
    Low  Medium high reverb
    
    i use the boss hyper metal pedal
     
      |                  /
    level  low  high  distortion
    
    Intro
    ---------------------------------------
    ---------------------------------------
    ---------------------------------------
    -4-----555-4------------------4--------
    -2-2-3-333-2-2-3-2h3h5-323202-2254-----
    ---0-1-------0-1---------------032-----
    The…
  • easy to catch except the beginning so i put it along
    
     |-----------------------------------------------------------|
     |-----------------------------------------------------------|
     |-----------------------------------------------------------|…
  • normal tuning
    
     riff 1 (2 times)        riff 2
    
    -0-0-0-0---------------|--------------------------|-------------------
    -0-0-0-0-7-----7-8-7-7-|--3-3-4-3-4-3-------------|-------------------
    -9-9-9-9---7---7---7-7-|--2-2---2---2-3-2---------|-------------------
    -9-9-9-9-----9-9---9-9-|--0-0---0---0-----5-5-4-4-|-------------------
    -7-7-7-7-----7-9---9-9-|--0-0---0---0-----3-3-4-4-|-------------------
    -0-0-0-0-----7-7---7-7-|------------------3-3-2-2-|-------------------…
  • .:Riff I:.
    |-------|
    |-------|
    |-------|
    |-2-3-6-|
    |-2-3-6-|
    |-0-1-4-|
    
    
    .:Riff II:.
    |---------|
    |---------|
    |---7-----|
    |-2-7-6-5-|
    |-2-5-6-5-|
    |-0---4-3-|
    
    
    .:Riff III:.
    |-----------------|
    |-----------------|
    |-----------------|
    |-4/5/8/7/4/5/3/4-|
    |-4/5/8/7/4/5/3/4-|
    |-2/3/6/5/2/3/1/2-|
    
    
    
    .:Riff…
  • Legend
    ------
    
     h  = hammer-on
     p  = pull-off
     b  = bend
     r  = bend release
     /  = slide up/down
     = natural harmonic
    [5] = artifical harmonic
     ~  = vibrato
     tr = trill
    
     g1 = guitar #1 Ishan(), notes on top of…
Наверх