Аккорды «Entity Paradigm»

Entity Paradigm
Entity Paradigm - альтернативная рок-группа из города Лахор, Пенджаб, Пакистан, образовалась в 2000 году. Группа была основана композитором и гитаристом Зульфикаром Джей Ханом, вокалистом, автором песен Фавадом Афзал Ханом и клавишником, вокалистом Ахмедом Али Баттом, вслед за которым присоединились гитарист Салман Альберт, барабанщик Абид Хан, ритм-гитарист Хассан Халид и барабанщик Вакар Ахмед. С тех пор состав группы постоянно менялся, единственными постоянными участниками являются Ахмед Али… Читать полностью... Entity Paradigm - альтернативная рок-группа из города Лахор, Пенджаб, Пакистан, образовалась в 2000 году. Группа была основана композитором и гитаристом Зульфикаром Джей Ханом, вокалистом, автором песен Фавадом Афзал Ханом и клавишником, вокалистом Ахмедом Али Баттом, вслед за которым присоединились гитарист Салман Альберт, барабанщик Абид Хан, ритм-гитарист Хассан Халид и барабанщик Вакар Ахмед. С тех пор состав группы постоянно менялся, единственными постоянными участниками являются Ахмед Али Батт, Салман Альберт и Хассан Халид. Скрыть...
Популярные аккорды Entity Paradigm:
алфавиту | просмотрам | случайно
  • E		        D
    Mujh ko day woh jo tu na day saka 
    	C
    Meree rooh ko na yoon sata 
    	E	  D
    meree himat ko tu barhaa 
    	C	
    mayray khoon may who rang day 
        C
    jo rang tu na dau saka
    
    
    guitar part: G D C C, G D A G
    
    
    E…
  • Intro (while the bass is playing -4---7---0- on the low C string)
    
    d---------10-----9-------18--19--18--16--------
    E-10--12------12------------------------19-----
    F----------------------------------------------
    C----------------------------------------------
    G----------------------------------------------
    C----------------------------------------------
    
    
    d---------10-----9-----------------------------
    E-10--12------12----------14---12--11--12------
    F----------------------------------------------
    C----------------------------------------------
    G----------------------------------------------
    C----------------------------------------------
    
    then…
  • Tuning: Drop C
    
    
    Intro:
    
    (distorted and muted)
    D---------------------------------------------------
    A---------------------------------------------------
    F---------------------------------------------------
    C--2--2-2--2-2--2-2--2------------------------------
    G--2--2-2--2-2--2-2--2------------------------------
    C--2--2-2--2-2--2-2--2------------------------------…
  • INTRO x2
    e-|------------------------------------------|
    B-|------------------------------------------|
    G-|------------------------------------------|
    D-|-----------12-9------------7-----7-----9--|
    A-|----9-12-9-------------5-----5-----5------|
    D-|--9-----------------5----5-----5-----5----|
    
    e-|------------------------------------------|
    B-|----------------------------------0-0-0---|
    G-|----------------------------------0-0-0---|
    D-|---------7/5---5/4---4/2---2h45--5-5-4---|
    A-|-----5------------------------------------|
    D-|--0----0-----0-----0-----0----------------|
    
    
    0:27
    These…
  • Chords: C(032010)   G(320003)    D(x00232)    A(002220)    Em(022000)
    
    			
    INTRO:
    
    ---------0-----------------3------------0--------------------------
    -----0-----0-----------3----3-------------0-----------0------------
    -------2-----2-------0---0---0------0-------0-------0-0------------
    ---2---------------2--------------2---2-----------2----------------
    -0---------------3--------------3---------------2------------3-2-0-
    -----------------------------------------------------------0-------…
Наверх