Аккорды «Entombed»

Entombed
История этого коллектива началась со Стокгольмской дэт-банды Nihilist, существовавшей в 1987-89 годах. Главными и постоянными "нигилистами" являлись гитарист Алекс Хеллид и барабанщик (и по совместительству басист, вокалист и гитарист) Нике Андерссон, а остальной состав постоянно тасовался, включая слонявшихся туда-сюда Ларса-Горана "LG" Петрова (вокал) и Уффе Седерлунда (гитара). Nihilist записали несколько демо и свернули свою деятельность, но вскоре вышеупомянутая четверка воссоединилась под… Читать полностью... История этого коллектива началась со Стокгольмской дэт-банды Nihilist, существовавшей в 1987-89 годах. Главными и постоянными "нигилистами" являлись гитарист Алекс Хеллид и барабанщик (и по совместительству басист, вокалист и гитарист) Нике Андерссон, а остальной состав постоянно тасовался, включая слонявшихся туда-сюда Ларса-Горана "LG" Петрова (вокал) и Уффе Седерлунда (гитара). Nihilist записали несколько демо и свернули свою деятельность, но вскоре вышеупомянутая четверка воссоединилась под маркой Entombed. В 1989-м вышел пробник "But Life Goes On", благодаря которому группа получила прописку на Earache Records. На следующий год "погребенные" выкатили свой первый полноценный альбом, "Left Hand Path", начиненный брутальным дэт-металлом с фирменным жужжащим гитарным саундом. Уже после выхода диска группа обзавелась басистом в лице Ларса Розенберга, однако тут же нарисовалась проблемы с вокалистом, поскольку Петров, повздоривший с Андерссоном, был изгнан. Миньон "Crawl" группа записала с Орваром Сафстремом, на альбоме "Clandestine" спел Нике, а на последующих гастролях у микрофона находился Джонни Дордевич. В 1992-м команда наравне с Carcass, Cathedral и Confessor стала участником тура "Gods Of Grind", а незадолго до этого на свое место вернулся Ларс-Горан. Миньон "Hollowman" и последовавший за ним лонгплей "Wolverine Blues" обозначили отход от чистого дэт-металла к традиционному року и положили начало формированию стиля "дэт-н-ролл". Смена ориентиров вывела популярность Entombed далеко за пределы Швеции и в том же 1993-м коллектив провел очень успешный тур в компании с Napalm Death. В 1995-м Розенберга сменил Йорген Сандстром (экс-Grave), а на следующий год коллектив ушел с Earache и начал работать под флагом Music For Nations. Продолжив стилевые разработки, начатые на "Wolverine Blues", команда выпустила альбом "To Ride, Shoot Straight And Speak The Truth", вызвавший волну восхищенных откликов и занявший в 1997 году по мнению журнала "Metal Hammer" второе место. Несмотря на растущую популярность, группу покинул один из ее основателей, Андерссон, пожелавший сосредоточиться на своем другом проекте, Hellacopters. Место за барабанами занял Петер Стьярнвинд (Face Down, Merciless, Loud Pipes, Regurgitate), но в лице Нике команда лишилась и основного автора песен, поэтому за подготовку материала "Same Difference" взялся Уффе. Альбом получился не очень тяжелым и слишком коммерческим, что вызвало негодование фанов, обвинивших Entombed в продажности. Тем временем Earache решила вновь подзаработать на бывших подопечных и выпустила концертник "Monkey Puss: Live In London" с записью 1992 года. На рубеже веков "погребенные" провели работу над ошибками и, вернувшись к раннему звучанию, очень порадовали своих поклонников альбомом "Uprising". Почувствовав слушательскую поддержку, музыканты заиграли пошустрее и осенью 2001-го выдали еще одну полнометражку, "Morning Star". В 2002-м вышел сборник каверов "Sons Of Satan Praise The Lord", а на следующий год Entombed вернулись с очередной порцией дэт-н-ролла под названием "Inferno". Вскоре после этого начались перемены в составе: сначала Сандстрёма сменил Нико Эльгстранд, затем ушел Уффе Седерлунд в краст-панк команду Disfear, а потом на месте Стьярнвинда оказался Олле Дальстедт. Ввиду всех этих перемен, студийного материала долгое время не появлялось, и лишь летом 2007-го в продажу поступил лонгплей «Serpent Saints». Альбом занял третью строчку в шведском национальном хит-параде. Это самый большой успех группы в чартах за всю ее карьеру. Осенью 2010 года Entombed объявили о присоединении к своему составу басиста Виктора Брандта (Totalt Jävla Mörker, Aeon, Satyricon). В то же время, бывший басист Entombed — Нико Элгстранд взялся за гитару. В 2013 году Entombed вошли в студию для записи нового альбома под названием "Back To The Front". В сентябре 2013 года было объявлено, что группу покидает один из основателей коллектива Алекс Хеллид. Так же стало известно, что Алекс не принимал участия в сочинении и записи материала для нового альбома. Вскоре после этого релиз нового альбома был отодвинут на 2014 г. В январе 2014 года было объявлено, что группа разделяется на 2 лагеря: одни участники (из состава группы 1991 года: Хеллид, Седерлунд и Orvar Säfström) решили выступать со старым материалом 90-х под тем же названием, другие (Петров, Эльгстран, Дальстедт и Брандт) сформировали свою "прогрессивную" ячейку, стали называться Entombed A.D. (видимо, от Рождетсва Христова) и чуть изменив стиль лого. Скрыть...
Популярные аккорды Entombed:
алфавиту | просмотрам | случайно
  • Tune Down to C
    
    
      Riff A (play 1 time)
    |------------------------|
    |------------------------|
    |------------------------|GTR1
    |------------------------|
    |------------------------|
    |---------x--------/15-|
           pick slide
    
    |----------------------------------------------------------------------|
    |----------------------------------------------------------------------|GTRS
    |----------------------------------------------------------------------|1&2
    |---------------------3-----------------------3----------------------3-|
    |-------------------2-1---------------------2-1--------------------2-1-|
    |-0-111-0-111-0-111-0-----0-111-0-111-0-111-0----0-111-0-111-0-111-0---|…
  • Tune down to C
    
    1                 2                             3
    |---------------|----------------------------|------------------------|
    |---------------|----------------------------|------------------------|
    |---------------|----------------------------|----------------7-7-7-7-|
    |---------------|----------------------------|----------------5-5-5-5-|
    |---------------|-2-2-2--3-3-3-8-7----5--4---|-4-4-4--7/87-5---------|
    |--x----x-----|-0-0-0--1-1-1-6-5-0----6--5-|-2-2-2--5/65-3---------|…
  • Tune Gtr to B
    
    
    Intro
    |----------------|---------------|
    |----------------|---------------|
    |----------------|---------------|Gtrs 
    |----------------|-2-(2)---------|I&II
    |-3-5-7---8-10-7-|-2-(2)---------|
    |-1-3-5---6-8--5-|-0-(0)-----/x-|…
  • Tune down 2 steps (C,F,A#,D#,G,C)
    
    
    Riff 1
    
    |-------------------------|---------------------------|
    |-------------------------|---------------------------|
    |-------------------------|---------------------------|
    |-------------------------|----------------5-8-7-5h7--|
    |-2----5/7-5-2-5-8-7-5-7--|-2----5/7-5---7------------|
    |-0-00-3/5-3-0-3-6-5-3-5--|-0-00-3/5-3-0--------------|…
  • Tune down to C
    
    
    riff 1 
    
     w/wah
    |-------------------------------------|-------------------------------------|  
    |-------------------------------------|-------------------------------------|  
    |-------------------------------------|-------------------------------------|
    |-------6---5555-5-------6---5-8-7-10-|-------6---5555-5-------6---5-8-7-10-|
    |-2---2-4-4-3333-3-4---4-4-4-3-6-5-8--|-2---2-4-4-3333-3-4---4-4-4-3-6-5-8--|
    |-4---4---2--------2---2---2----------|-4---4---2--------2---2---2----------|…
  • Intro Riff
    e|-0h3p0------------0h3p0------------------------|-------|
    B|-------0h3p0------------0h3p0------------------|-------|
    G|-------------2h3--------------2h3--------------|-9-----|
    D|------------------------------------3-----5----|-9-----|
    A|------------------------------------1-3---3-5--|-7-----|
    E|--------------------------------------1-----3--|-0-----|
    
    
    Pre-verse…
  • Tune down to C(every string 2 steps down)
    
    
    Intro:
    |---------------------------------------------------------------|
    |---------------------------------------------------------------|
    |---------------------------------------------------------------|
    |--------------------------------4-4-4-4-4-4-4-4----------------|
    |------------4-4-3-3-3-3-3-3-3-3-----------------3-3-3-3--------|
    |2-2-2-2-2-2---------------------------------------------3-3-3-3|
    
    |--------------------------------------------------------------------|
    |--------------------------------------------------------------------|
    |--------------------------------------------------------------------|
    |---------------------------------4-4-4-4-4-4-4-4-----7-7-7-7-7-7-7-7|
    |-------------4-4-3-3-3-3-3-3-3-3-----------------3-3----------------|
    |2-2-2-2-2-2---------------------------------------------------------|
    
    |----------------------------------------------------------|
    |--------------------------------7--7-7-7-7-7-7------------|
    |------------6-6-5-5-5-5-5-5-5-5----------------5-5-5------|
    |4-4-4-4-4-4------------------------------------------4^5^4|
    |----------------------------------------------------------|
    |----------------------------------------------------------|
    
    |---------------------------------------------------------------|
    |---------------------------------------------------------------|
    |---------------------------------------------------------------|
    |--------------------------------4-4-4-4-4-4-4-4----------------|
    |------------4-4-3-3-3-3-3-3-3-3-----------------3-3-3-3--------|
    |2-2-2-2-2-2-----------------------------------------------0-0--|
    P.M…
Наверх