Аккорды «Eric Clapton»

Eric Clapton
Родился 30 марта 1945 года в Рипли, графство Саррей. Большое влияние на юного Клэптона оказала музыка американских блюзменов Мадди Уотерса, Роберта Джонсона, Биг Билла Брунзи, чьи записи Эрик слушал все свободное время, осваивая технику игры выдающихся блюзовых гитаристов. После учебы в Кингстонском художественном колледже (откуда он был отчислен за неуспеваемость) Клэптон принимает активное участие в жизни лондонской блюзовой сцены: эпизодически выступает с группой Алексиса Корнера «Blues Incorporated»,… Читать полностью... Родился 30 марта 1945 года в Рипли, графство Саррей. Большое влияние на юного Клэптона оказала музыка американских блюзменов Мадди Уотерса, Роберта Джонсона, Биг Билла Брунзи, чьи записи Эрик слушал все свободное время, осваивая технику игры выдающихся блюзовых гитаристов. После учебы в Кингстонском художественном колледже (откуда он был отчислен за неуспеваемость) Клэптон принимает активное участие в жизни лондонской блюзовой сцены: эпизодически выступает с группой Алексиса Корнера «Blues Incorporated», а в октябре 1963-го присоединился к «The Yardbirds». В составе «The Yardbirds» Клэптон отыграл больше года, успев записать с ними три сингла, альбом и концертный диск «Five Live Yardbirds» (1964). Несмотря на возрастающую популярность группы, тяготевший к чистому блюзу Эрик решает покинуть «The Yardbirds», сочтя музыку коллектива слишком коммерческой. С апреля 1965 года он выступает в составе группы Джона Мэйелла «The Bluesbreakers». В биографии Эрика Клэптона это был переломный момент – его игра в «The Bluesbreakers» принесла ему славу лучшего блюзового гитариста страны. C ними Клэптон выпустил только один альбом – «Blues Breakers - John Mayall with Eric Clapton» (1966) – но он сразу попал в первую десятку национального хит-парада. В июле 1966 года он расстался с Джоном Мэйеллом и образовал с Джеком Брюсом и Джинджером Бейкером трио «Cream». Исполняемая ими музыка, представлявшая собой синтез рока и блюза и виртуозная импровизационная манера игры имели огромный успех у публики. В период 1966-68 гг. были записаны четыре альбома, трио активно гастролировало, но к 1969-му, почувствовав, что находятся в творческом тупике, музыканты прекращают совместную деятельность. После непродолжительного пребывания в проектах «Blind Faith», «Derek and the Dominos» и записи своего первого сольного альбома «Eric Clapton» (1970) он на два года исчезает из поля зрения, лишь эпизодически участвуя в концертах. Причиной затворничества музыканта стали проблемы с наркотиками. Пройдя курс лечения, в 1973 году Клэптон возвращается на сцену. На следующий год увидел свет его новый альбом – «461 Ocean Boulevard». Выпущенные в 70-80-х годах альбомы «Slowhand» (1976), «Backless» (1977), «Another Ticket» (1981), «Money and Cigarettes» (1983), «August» (1987), «Journey Man» (1989) и др. по разному были встречены слушателями и музыкальной прессой, далеко не все работы находили горячий прием у публики, но сохранили за ним репутацию одного из лучших рок-блюзовых гитаристов. 90-е годы стали временем возрождения для Клэптона – вышедший в 1992 году акустический альбом «MTV Unplugged», свидетельствовавший о возврате к блюзовым корням музыканта, завоевал огромную популярность. Несмотря на то, что с тех пор Клэптон записал еще несколько достаточно ровных альбомов, выдержанных в прежней рок-стилистике, он каждый раз возвращался к блюзу: в 1994 году вышел «From The Cradle», целиком состоявший из старых классических блюзовых композиций, в 2000 он вместе с Би Би Кингом выпустил альбом «Riding With The King», а в 2004 он записал целый альбом кавер-версий легендарного блюзмена тридцатых годов Роберта Джонсона «Me and Mr. Johnson». Дискография: «Eric Clapton» (1970), «461 Ocean Boulevard» (1974), «There´s One In Every Crowd» (1975), «E.C. Was Here» (1975, live), «No Reason To Cry» (1976), «Slowhand» (1977), «Backless» (1978), «Just One Night» (1980, live), «Another Ticket» (1981), «Money And Cigarettes» (1983), «Behind The Sun» (1985), «August» (1986), «Homeboy» (1989), «Journeyman» (1989), «24 Nights» (1991, live), «Rush» (1992), «Unplugged» (1992, live), «Stages» (1993, live), «From The Cradle» (1994), «Live In Montreux» (1997, live), «Pilgrim» (1998), «Riding With The King» (2000, совместно с Би Би Кингом), «Reptile» (2001), «One More Car, One More Rider» (2002, live), «Me And Mr. Johnson» (2004),»Clapton»(2010). Скрыть...
Популярные аккорды Eric Clapton:
алфавиту | просмотрам | случайно
  • Lick 1: (The Verse)
    
           A     Esus2  F#m    F#m/E      D   A     E
    E|-------------------------------------------------------------|
    B|---------2---5-----2---------2---------3-3-2-02--------------|
    G|----------2-4-------2-------2-2-------2---2-------1---2---4--|
    D|--------2-----2---4---4---------4---0---2---2-----2----------|
    A|------0-----------------4---------4-----0-------2---2-4---5--|
    E|0-2-4-------4---0-2-------0-------------------0---------0---0|
    
    Would…
  • main riff is [E] [E] [D] [E] [E] [D] - play that twice over each
    Line of the verses)
    
    If you wanna hang out you've got to take her out, cocaine.
    If you wanna get down, down on the ground, cocaine.
    
      She don't [E] lie, she…
  • Intro: E F#m G G F# E E F#m G G F#m B7sus4 
     
    E          E6        E7     E7       E6       E 
    If I could reach the stars, pull one down for you. 
    E       E6    E7     E7           E6      E 
    Shinin' on my heart, so…
  • e:------------------------------------
    B:------------------------------------
    G:-14br14---14br-----14br14-----------
    D:--------------14--------------------
    repeat again but after second time play
    e:------------------------------------
    B:-12--13--/17⁄15---------------------
    G:------------------------------------
    D:------------------------------------
    
    Eric…
  • E|----------|--------------------------|-----------------------|
    B|----------|---------------3---3------|-5---5---5-------------|
    G|--------2-|---------------3---3------|-5---5---5--2---------2|
    D|--------0-|-0--------3----3---3------|-5---5---5--0---------0|
    A|-0---3----|-----3----1----1---1----3-|-3---3---3------0--3---|
    E|----------|--------------------------|-----------------------|
    
    E|-1-------------------------|---------------------------------|
    B|-3-----------------3--3----|-5-------------------------------|
    G|-2-----------------3--3----|-5----------2--------------------|
    D|-------------3-----3--3----|-5-----5----0--------------0-----|
    A|---------3---1-----1--1--X-|-3--0--3-----------0---3---------|
    E|---------------------------|---------------------------------|
    
    E|-1--1-------------|-------------------|----------------------|
    B|-3--3-------------|-----------------5-|565----5-6-5----5-6/8-|
    G|-2--2-------------|---------------7---|------7--------7------|
    D|-0--0--X--3--3--3/|-5--5--5--7--7-----|----------------------|
    A|----------1--1--1/|-3--3--3--5--------|----------------------|
    E|------------------|-------------------|----------------------|
    
    E|------------8------|10-12-10/12/10----10---------------------|
    B|6-8/10-8-10---10-13|---------------13----13-10---10----12/10-|
    G|-------------------|--------------------------12---12--------|
    D|-------------------|-----------------------------------------|
    A|-------------------|-----------------------------------------|
    E|-------------------|-----------------------------------------|
    
    E|------------------|---------------------------|--------------|
    B|------------5-6-5-|---------------------------|--------------|
    G|-9--10-9---7------|-7------7----------------3-|--------------|
    D|---------7--------|-----7-----7/5---3---3/5---|-------0------|
    A|------------------|-------------------5-------|-5--3-----0-3-|
    E|------------------|---------------------------|--------------|
    
    1.…
  • Intro: Bb2 F Gm EbM9 Fill 1 
           Bb2 F Fill 2 
     
    Fill 1 
    e-------------------| 
    b--/8-----6~~-------| 
    g--/7---------------| 
    d-------------------| 
    a-------------------| 
    E-------------------| 
    
    Fill 2 
    e--/8--6~---------------------------|…
  • Intro:
    
    [N.C.] C E/B Am C/G
    v v v v v v v v v v v v v v v v v v
    -----------|-------------|-------------|-------------|-------------
    -----------|----1--------|-------------|-------------|-------------
    -----------|-------0-----|-------1-----|-------2-----|-------------
    -------0---|h2--------2--|----2-----2--|----2-----2--|-------2-----
    -2--h3-----|-------------|-2-----------|-0-----------|----3-----3--
    -----------|-------------|-------------|-------------|-3-----------
    
    [Riff…
  • (Intro)
    
    E----0---2-2-0----------------------------0-2-2-0----*
    B----0---2-2-0----------------------------0-2-2-0----*
    G----1---2-2-1----------------------------1-2-2-1----*
    D----2---2-2-2----------2------2------2---2-2-2-2----*
    A----2-------2---2-2-⁄4---2-⁄4---2-⁄4-----2-----2----*
    E--0---------0--------------------------0-------0----*
    
    E-------------------------------------2-2-0----------*
    B-------------------------------------2-2-0----------*
    G----------------4-4-6----------------2-2-1----------*
    D---------2-4-⁄6-------6-h4-⁄2---2----2-2-2----------*
    A--2-2-h4----------------------4----------2----------*
    E----------------------------------0------0----------*
    
    E--------------0--2-2---0---4--2-2-------------------*
    B--⁄3-3-2-0-h1-0--2-2---0-4-4--2-2--2-2--------------*
    G--⁄4-4-2------1--2-2---1-4-4--2-2--2-2--------------*
    D--------------2--2-2---2-4-4--2-2--2-2---------2----*
    A-----------------------2-4-4--4-4--2-2--2-2-p4------*
    E---------------------0---4-4--2-2--2-2-----------0--*
    
    E--0---4--2-2-----------0----------------------------*
    B--0-4-4--2-2--2-2------0----------------------------*
    G--1-4-4--2-2--2-2------1----------------------------*
    D--2-4-4--2-2--2-2--0---2----------------------------*
    A--2-4-4--4-4--2-2------2----------------------------*
    E----4-4--2-2--2-2----0------------------------------*
    
    (End…
  • Intro: B B B
    (add 1/2 a B)
    B (this time only) E7 E7 B B B
    If I mistreat you girl, I sure dont mean no harm
    B E7 E7 B B B
    If I mistreat you girl, I sure dont mean no harm
    F#7 F#7 B B B
    Well Im a motherless child who dont…
  • E C#m ;A B ;E C#m ;A
    B
    [intro - slide lead]
    
    
    E C#m ;A B ;E C#m ;D
    [slide lead] [2 bar
    bridge
    
    
    D C#m B F# ;B ;F# B ;C#m
    for key change] Sailing down behind the sun, waiting for
    my
    
    
    B F# B ;B ;F# B ;C#m
    D
    Prince to come.…
  • G ------|------|-------------|-------------|-------------|------------
    D ------|------|---0---0-0-0-|-------------|---------0-0-|---------0-0
    A ------|------|-------------|-3-3---1-3-3-|-------------|------------
    E ------|------|-3---3-------|-----8-------|-3-3-3-3-----|-3-3-3-3----
    
    G…
  • (Amaj7 = x06650, Amaj7 [2] = x02120, C#m7 = x46454, Cdim = x3424x
    has G#7 = 464544)
    
    [Amaj7] Little man with his [B/A] eyes on fire [Cdim]
    And his smile so [C#m7] bright [B7]
    [Amaj7] In his hands are the [B/A] toys you gave…
  • C# F#
    (e) |-/9-9-7-|-9~~~~--9-9p7----|-------9-----|------------9-7-------|
    (B) |-/9-9-7-|-9~~~~--------9p7h9~~~~----7s5-|----------------7s5---|
    (G) |--------|-----------------|-------------|-6p4h6~~~~----------6-|
    (D)…
  • [G]Lately I've been [D/F#]running on [Em]faith [D/F#]
    [G]What else can a [D/F#]poor boy [Em]do [G7]
    But my [C]world will be right [D]
    When Love comes over [G]me [C] [D] [D7]
    
    [G]Lately I've been [D/F#]talking in my [Em]sleep…
  • INTRO:
    (e)|---------------|-11~~~-13-11-|-8-------------------|----------------| 
    (B)|---------10h13-|-------------|---8--11-8-10---8----|----------------| 
    (G)|---------------|-------------|-------------10---10-|-8--------------|…
  • Intro:
    
     N.C.                    Am7 Dm7/A               G7sus4        G   N.C.
    |------------------|------5---5------5----------|-3----3-------3---------------|
    |------------------|------5---6------6----------|-3----3-------3---------------|
    |------------------|*-----5---5------5-----5--0-|-5----5-------4--------------*|
    |------------------|*-----7---7------7-----7--0-|-3----3-------5--------------*|
    |--------0h3bp0----|-0--------------------------|-5------------5-------0h3p0---|
    |---0h3--------2b--|----------------------------|-3---------3------0h3--------3|…
  • Riff used for intro and (I think) part of the solo:
    
    e|-------5--5/8------------------------------5--5/8----------------|
    B|---------------8--------6--6/8--6------------------8--6--5-------|
    G|-5--7-------------5h7----------------5--7-------------------7----|
    D|-----------------------------------------------------------------|
    A|-----------------------------------------------------------------|
    E|-----------------------------------------------------------------|
    
    Repeat…
  • E7 A7 E7
    I went down to the crossroads, fell down on my knees
    A7 E7
    I went down to the crossroads, fell down on my knees
    B7 A7 E7
    Ask the lord up above for mercy, take me if you please.
    
    
    E7 A7 E7
    I went down to the crossroads,…
  • Intro: Play this 2x.
    e|----------------------------------
    B|----------------------------------
    G|----------------------------------
    D|-12-12-10-12----------------------
    A|--------------12--11--10-----8----
    E|--------------------------10---10-
    
    Play…
  • E||-------------------|---------------0-------|----0------------------|
    B||-------------------|--2-------0---------2--|------------0----------|
    G||-------------------|--2-------1---------2--|------------1----------|
    D||-------------------|-----------------------|-----------------------|
    A||----------------0--|-------0------------0--|---------0-------------|
    E||-------------------|-----------------------|-----------------0--0--|
    
    
    
    -------0-------0-------|----0-----------------|-------0-------0-------|
    --2-------0---------2--|------------0---------|--2-------0---------2--|
    --2-------1---------2--|------------1---------|--2-------1---------2--|
    -----------------------|----------------------|-----------------------|
    --0-------0---------0--|---------0---------0--|----------0---------0--|
    -----------------------|----------------------|-----------------------|
    
    
    
    ----0-----------------|-------0-------0-------|-----------------------|
    ------------0---------|--2-------0---------2--|-----------------0--2--|
    ------------1---------|--2-------1---------2--|-----------1--2-----2--|
    ----------------------|-----------------------|--------2-----------2--|
    ---------0------------|--0-------0---------0--|--------------------0--|
    -------------------0--|-----------------------|-----------------------|
    
    
    
    ----0----------0----0--|----4------------------|----2------------------|
    ------------4----------|---------------2----3--|------------3--2----0--|
    ------------4-------4--|------------3-------2--|------------2-------1--|
    ------------4-------6--|------------4-------4--|------------4-------2--|
    ---------0-------------|------------4-------2--|---------2-------------|
    --------------------4--|---------2-------------|--------------------0--|
    
    
    
    ----0-------------------|----0-------------------|----2-------------------|
    ------------3--2--0--2--|------------2--0--------|---------------0--2--3--|
    ---------------------2--|------------------2--3--|------------3--------2--|
    ---------------------2--|---------------------2--|---------------------4--|
    ---------------------0--|---------0--------------|---------------------2--|
    ---------0--------------|---------------------2--|---------2--------------|
    
    
    
    ----2------------------|----0-------------------|----0----------0-------|
    ------------3--2----0--|------------0--------2--|------------2-------3--|
    ------------2-------1--|---------------2--1--2--|------------2-------2--|
    ------------4-------2--|---------------------2--|-----------------------|
    ---------2-------------|---------------------0--|---------0-------------|
    --------------------0--|---------0--------------|--------------------2--|
    
    
    
    ----0----------0-------|----0----------0-------|----0-------------------|
    ------------3-------3--|------------3-------3--|------------0--------2--|
    ------------2-------2--|------------2-------1--|---------------2--1--2--|
    -----------------------|-----------------------|---------------------2--|
    -----------------------|-----------------------|---------------------0--|
    ---------2----------0--|---------0----------0--|---------0--------------|
    
    
    
    ----0----------0-------|----0----------0-------|----0----------0-------|
    ------------2-------3--|------------3-------3--|------------3-------3--|
    ------------2-------2--|------------2-------2--|------------2-------1--|
    -----------------------|-----------------------|-----------------------|
    ---------0-------------|-----------------------|-----------------------|
    --------------------2--|---------2----------0--|---------0----------0--|
    
    
    
    ----0-------------------|----0----------0----0--|----4------------------|
    ------------------0--2--|------------4----------|---------------2----3--|
    ------------1--2-----2--|------------4-------4--|------------3-------2--|
    ---------------------2--|------------4-------6--|------------4-------4--|
    ---------------------0--|---------0-------------|------------4-------2--|
    ---------0--------------|--------------------4--|---------2-------------|
    
    
    
    ----2------------------|----0-------------------|----0-------------------|
    ------------3--2----0--|------------3--2--0--2--|------------2--0--------|
    ------------2-------1--|---------------------2--|------------------2--3--|
    ------------4-------2--|---------------------2--|---------------------2--|
    ---------2-------------|---------------------0--|---------0--------------|
    --------------------0--|---------0--------------|---------------------2--|
    
    
    
    ----2-------------------|----2------------------|----0-------------------|
    ---------------0--2--3--|------------3--2----0--|------------0--------2--|
    ------------3--------2--|------------2-------1--|---------------2--1--2--|
    ---------------------4--|------------4-------2--|---------------------2--|
    ---------------------2--|---------2-------------|---------------------0--|
    ---------2--------------|--------------------0--|---------0--------------|
    
    
    
    ----0----------0-------|----0----------0-------|----0----------0-------|
    ------------2-------3--|------------3-------3--|------------3-------3--|
    ------------2-------2--|------------2-------2--|------------2-------1--|
    -----------------------|-----------------------|-----------------------|
    ---------0-------------|-----------------------|-----------------------|
    --------------------2--|---------2----------0--|---------0----------0--|
    
    
    
    ----0-------------------|----0----------0-------|----0----------0-------|
    ------------0--------2--|------------2-------3--|------------3-------3--|
    ---------------2--1--2--|------------2-------2--|------------2-------2--|
    ---------------------2--|-----------------------|-----------------------|
    ---------------------0--|---------0-------------|-----------------------|
    ---------0--------------|--------------------2--|---------2----------0--|
    
    
    
    ----0----------0-------|----0------------------|-----0----0----0-------|
    ------------3-------3--|------------------0----|--4--0----0----0----2--|
    ------------2-------1--|------------1--2-------|--4--1--------------2--|
    -----------------------|-----------------------|--4-------6----6----2--|
    -----------------------|-----------------------|--4-------4----4-------|
    ---------0----------0--|---------0-------------|--------------------2--|
    
    
    
    --------------2-------|----2------------------|----0------------------|
    -----------2-------3--|------------3--2----0--|------------------0----|
    -----------2-------2--|------------2-------1--|------------1--2-------|
    -----------2-------4--|------------4-------2--|-----------------------|
    -------------------2--|---------2-------------|-----------------------|
    --------2-------------|--------------------0--|---------0-------------|
    
    
    
    -----0----0----0-------|--------------2-------|----2------------------|
    --4--0----0----0----2--|-----------2-------3--|------------3--2----0--|
    --4--1--------------2--|-----------2-------2--|------------2-------1--|
    --4-------6----6----2--|-----------2-------4--|------------4-------2--|
    --4-------4----4-------|-------------------2--|---------2-------------|
    --------------------2--|--------2-------------|--------------------0--|
    
    
    
    ----0------------------|----4----4----4-------|--------------2-------|
    ------------------0----|----5----5----5----2--|-----------2-------3--|
    ------------1--2-------|----4----4----4----2--|-----------2-------2--|
    -----------------------|-------------------2--|-----------2-------4--|
    -----------------------|----------------------|-------------------2--|
    ---------0-------------|----4----4----4----2--|--------2-------------|
    
    
    
    ----2------------------|----0-------------------|----0----------0-------|
    ------------3--2----0--|------------0--------2--|------------2-------3--|
    ------------2-------1--|---------------2--1--2--|------------2-------2--|
    ------------4-------2--|---------------------2--|-----------------------|
    ---------2-------------|---------------------0--|---------0-------------|
    --------------------0--|---------0--------------|--------------------2--|
    
    
    
    ----0----------0-------|----0----------0-------|----0-------------------|
    ------------3-------3--|------------3-------3--|------------0--------2--|
    ------------2-------2--|------------2-------1--|---------------2--1--2--|
    -----------------------|-----------------------|---------------------2--|
    -----------------------|-----------------------|---------------------0--|
    ---------2----------0--|---------0----------0--|---------0--------------|
    
    
    
    ----0----------0-------|----0----------0-------|----0----------0-------|
    ------------2-------3--|------------3-------3--|------------3-------3--|
    ------------2-------2--|------------2-------2--|------------2-------1--|
    -----------------------|-----------------------|-----------------------|
    ---------0-------------|-----------------------|-----------------------|
    --------------------2--|---------2----------0--|---------0----------0--|
    
    
    
    ----0-------------------|----0---------0----0--|----4----------2-------|
    ------------0--------2--|----2----4------------|----5----2-----2----3--|
    ---------------2--1--2--|---------4----4----4--|---------2--3-------2--|
    ---------------------2--|---------4----4----6--|--------------------4--|
    ---------------------0--|---------0------------|--------------------2--|
    ---------0--------------|-------------------4--|---------2-------------|
    
    
    
    ----2------------------|----0-------------------|----0------------------|
    ----3-------3--2----0--|----0-------3--2--0--2--|----2-------2--0----2--|
    ------------2-------1--|---------------------2--|------------2--1----2--|
    ------------4-------2--|---------------------2--|-----------------------|
    ---------2-------------|---------------------0--|---------0-------------|
    --------------------0--|---------0--------------|--------------------2--|
    
    
    
    -----2-------------------|----2------------------|----0-------------------|
    -----2----------0--2--3--|----3-------3--2----0--|----0-------0--------2--|
    --3----------2--------2--|------------2-------1--|---------------2--1--2--|
    ----------------------4--|------------4-------2--|---------------------2--|
    ----------------------2--|---------2-------------|---------------------0--|
    ----------2--------------|--------------------0--|---------0--------------|
    
    
    
    ----0----------0-------|----0----------0-------|----0----------0-------|
    ------------2-------3--|------------3-------3--|------------3-------3--|
    ------------2-------2--|------------2-------2--|------------2-------1--|
    -----------------------|-----------------------|-----------------------|
    ---------0-------------|-----------------------|-----------------------|
    --------------------2--|---------2----------0--|---------0----------0--|
    
    
    
    ----0-------------------|----0----------0-------|----0----------0-------|
    ------------0--------2--|------------2-------3--|------------3-------3--|
    ---------------2--1--2--|------------2-------2--|------------2-------2--|
    ---------------------2--|-----------------------|-----------------------|
    ---------------------0--|---------0-------------|-----------------------|
    ---------0--------------|--------------------2--|---------2----------0--|
    
    
    
    ----0----------0-------|----0------------------|----------------0--5--|
    ------------3-------3--|----3-------0----------|-------------2--------|
    ------------2-------1--|----1----------2-------|----------2-----------|
    -----------------------|---------2--------6----|----------------------|
    -----------------------|------------2--0-------|----------0-----------|
    ---------0----------0--|---------0--------4----|----------------------|
    
    
    
    ------------------||
    ------------------||
    ------------------||
    ------------------||
    ------------------||
    ------------------||…
  • C E7 A7
    Once I lived the life of a millionaire
    Dm A7 Dm A7 Dm
    Spent all my money (lord) and I didn't care
    F D7 C E7 A7
    Taking my friends out for a mighty good time
    D7 G7
    Drinking fancy liquor, champagne and wine
    
    But then…
  • e e q q q e e e e e e e e q q q e e e e e e q
    ||-----------3--0-----9-----9--7--0----------3--0-----9-----9--7--0--------
    ||-----------0--0-----8-----8----------------0--0-----8-----8--------------
    ||*----------1--1-----9-----9----------------1--1-----9-----9--------------
    ||*------------------------------------------------------------------------
    ||---2/7-----------------------------2/7-----------------------------7-----
    ||--------0--0--0--0-----0-----0--0-------0--0--0--0-----0-----0--0--------
    
    
    q…
  • A Bm G D G D A
    I beg your pardon, hello darlin, This is me your talking to......
    A Bm G D
    Sit down and tell me about it, you don't have to shout it at me,
    G D A D
    tell what you really want to do........
    
    
    G D A G D A
    Don't…
  • INTRO:
    
    F Dm A C
    |-----------1--|-----------1--|--------------|-----------0--|
    |--------1-----|--------3-----|-----------2--|--------1-----|
    |-----2--------|-----2--------|--------2-----|-----0--------|
    |--3-----------|--0-----------|-----2--------|--------------|
    |--------------|--------------|--0-----------|--3-----------|
    |--------------|--------------|--------------|--------------|
    
    G…
  • ---------------|--------------------------------|-------------------------
    ---------------|---------------------3---3------|---5---5---5-------------
    ------------2--|---------------------3---3------|---5---5---5--2---------2
    ------------0--|----0--------3-------3---3------|---5---5---5--0---------0
    -----0---3-----|--------3----1-------1---1----3-|---3---3---3------0--3---
    ---------------|--------------------------------|-------------------------
    
    ---1-------------------------|---------------------------------------------
    ---3-----------------3--3----|---5-----------------------------------------
    ---2-----------------3--3----|---5----------2------------------------------
    ---------------3-----3--3----|---5-----5----0--------------0---------------
    -----------3---1-----1--1--X-|---3--0--3-----------0---3-------------------
    -----------------------------|---------------------------------------------
    
    
    -1----1----------------|----------------------|----------------------------
    -3----3----------------|--------------------5-|5⁄6⁄5----5-6-5----5-6/8-----
    -2----2----------------|------------------7---|------7--------7------------
    -0----0---X--3--3----3/|-5--5--5---7----7-----|----------------------------
    -------------1--1----1/|-3--3--3---5----------|----------------------------
    -----------------------|----------------------|----------------------------
    
    
    --------------------8----------|-10-12-10/12/10----10----------------------
    --6--8/10----8--10------10…
  • You need the following chords: E7 - A7 - B7 (|-|V-V)
    
    The main chord progression is (12 bar quick change Blues)
    
    E7 - A7 - E7 - E7
    A7 - A7 - E7 - E7
    B7 - A7 - E7 - B7
    
    The song structure is:
    1st verse, 2nd verse, solo, 3rd…
  • C F
    E----------0--------I---------0-------I--------1--------I-------1---------I
    B--------1-------1--I------1------1---I-----1-------1---I-----1-----1-3---I
    G------0-------0----I----0------0-----I---2-------2-----I---2-------------I
    D-------------------I-----------------I-----------------I-----------------I
    A---3---------------I-3---------------I-----------------I-----------------I
    E-------------------I-----------------I-1---------------I-1---------------I
    
    
    Dm7…
  • Bm F#7 D E
    Standin' at the crossroads, tryin' to read the signs
    
    G A Bm F#7
    To tell me which way I should go to find the answer
    
    D E
    And all the time I know,
    
    G A B
    Plant your love and let it grow.
    
    B
    Let it grow, let it…
  • [A] [F#m] [A] [F#m]
    
    [A] I've got a feeling [D] we could be serious, [A] girl; [F#m] [E] [A]
    [A] Right at this moment, [D] I could promise you the [A] world. [F#m] [E] [A]
    Be[D]fore we go crazy, be[A]fore we explode,
    [D]…
  • 12/8
    E||---------------------------3-|--4--4--4--4----4----------4----4--|
    B||---------------------------2-|--3--3--3--3----3----------3----3--|
    G||---------------------------3-|--4--------4-----------------------|
    D||------------------------0----|-----------------------------------|
    A||------------------------0----|------------------------0----------|
    E||------------------------0----|-------------------0----0----------|
    
    
    
    --3----3-----3-----2----2----------|----------0--3--0--3--0-----0-----------|
    --2----2-----2-----1----1----------|-------------------3--0--3--------------|
    --3----3-----------2------------0--|--0-1-0-1----------------------2---0-1--|
    -----------------------------------|-------------------------------------2--|
    ---------------------------0-------|----------------------------------------|
    ----------0-----0----------0-------|----------------------------------------|
    
    
    
    --0----------------------------0-3-|--4----4-------------------------|
    --0-------0----0----0----------0-2-|--3----3-------------------0-----|
    -----------------------2--2----0-3-|--4----4-------------------0-----|
    -----------------------------------|---------------------------------|
    -------2---------------------------|----------------2----4--------0--|
    -----------------------------------|----------------0----0--0--------|
    
    
    
    -------------------------------0--|-----------------------------------|
    -------------------------------0--|-----------------------------------|
    -------2-----------------------0--|-----------------------------2-----|
    --2----2--4-------2-------4-------|-----------------------------2-----|
    --0----0--0----0--0----0--0-------|--2-------4-------2----------------|
    ----------------------------------|--0----0--0----0--0----0--0-----0--|
    
    
    
    ----------0--------------------------|-------------------------------3--|
    ----------0--------------------------|-------------------------------2--|
    --0-1-0-1----------------------------|-------2--------------------------|
    -------------------------------------|--2----2--4----4--2-------2-------|
    -------------4-------2-------4-------|--0----0--0----0--0----0--0-------|
    -------------0----0--0----0--0----0--|----------------------------------|
    
    
    
    --0--------------------------------|----------------0-------0-----------|
    --0----2------------------------2--|-----------0----0--3----0-----------|
    -------2------------------------2--|-----------1---------------2---0-1--|
    ----------2-------4-------2--0-----|--0------------------------------2--|
    -------0--0----0--0----0--0--------|--0--------2------------------------|
    -----------------------------------|--0-----0---------------------------|
    
    
    
    --0----0--------------0-----0------|------------2-----------------------|
    --0----0--3--2--0-----0------------|---------0--------0----0------0-----|
    --1----------------2---------------|---------------2--2------2----------|
    -----------------------------------|------------------1-----------------|
    -----------------------------------|--2---------------2--------2-----0--|
    -------------------------0---------|------------------------------------|
    
    
    
    ----------------------------------|-------0-3-4--0--4--0-----0-----------|
    -------------------------------0--|-------0-2-3--3--3-----3--0-----------|
    --2----2-----------------------2--|---------3-4-----------4-----2--0-----|
    --2----2--4----2--2-------2-------|-----------------------------------2--|
    -------0--0----0--0----0--0-------|--------------------------------------|
    ----------------------------------|--0-----------------------------------|
    
    
    
    --0--------------------------------|------------------------------------|
    --0-------0----0-----0-----0-------|------------------------------------|
    --1---------------2-------------0--|-----------------------------0------|
    ------------------1-----1-------0--|-------------------------------0----|
    -------2----------2-----2----------|--2-------4----4--2-------4------0--|
    -----------------------------------|--0----0--0----0--0----0--0---------|
    
    
    
    -------------------------------0--|-----------------------------------|
    -------------------------------0--|-----------------------------------|
    -------2--------------------------|-----------------------------2-----|
    --2----2--4----4--2-------4-------|--------------------------0--2-----|
    --0-------0----0--0----0--0-------|--2----2--4----4--2----0--------0--|
    ----------------------------------|--0----0--0----0--0----0-----------|
    
    
    
    ----------0--------------------------|----------------------------------|
    --0-------0--------------------------|----------------------------------|
    --0-1-0-1----------------------------|----------------------------------|
    ----------------------------------0--|--2-------4----4--2----2--4----4--|
    -------------4----4--2----2--4----0--|--0----0--0----0--0----0--0----0--|
    -------------0----0--0----0--0-------|----------------------------------|
    
    
    
    ----------------------------------|--0----0--4--0--4--0-----0-------0--|
    -------------------------------0--|--0----0--3--3--------0----------0--|
    -----------------------2-------0--|--1-------4-----------------2-------|
    --2-------4----4--2-------4-------|--2---------------------------------|
    --0----0--0----0--0-------0-------|------------------------------------|
    ----------------------------------|------------------------------------|
    
    
    
    ----------0-----------------0--0-------|-------2--------2-------------------|
    --0-------0--3--2--0--------0-------0--|-------0-----------0-----0--0-------|
    --0-1-0-1-------------2---0------------|-------2-----2---------2----2-------|
    ---------------------------------------|----------------------------1-------|
    ---------------------------------------|--2-------2-----------------2----0--|
    ---------------------------------------|------------------------------------|
    
    
    
    -----------------------------------|-------0--4--0--4--0-----------------|
    --2----2---------------------------|-------0--3--3--3-----0--------------|
    --2----2----------------------0-1--|----------4-----4-----------2--0--1--|
    --2-------4----2--2-------4--------|-------------------------------------|
    --0-------0----0--0----0--0--------|-------------------------------------|
    -----------------------------------|--0----------------------0--------0--|
    
    
    
    --0-------------2-------------------|----------------------------------|
    --0-------0-----0-----------0-------|----------------------------------|
    --1-------2-----2-----2-----2-------|----------------------------------|
    -------------------1----------------|----------------------------------|
    -------2-----------2-----2----------|--2----2--4----4--2-------4----0--|
    -------------2-------------------0--|--0----0--0----0--0----0--0----0--|
    
    
    
    -------------------------------0--|-------0--4--0--4--4--4--4--4----4-3-|
    -------------------------------0--|-------0--3--3--3--3--3--3--3----3-2-|
    -------2--------------------------|----------4-----4--4-----4--4----4-3-|
    --2----2--4----4--2----2--4-------|-------------------------------------|
    --0----0--0----0--0----0----------|--2----------------------------------|
    ----------------------------------|--0----------------------------------|
    
    
    
    --4--4--4--3----3--4----4----------|----------------------------------|
    --3--3--3--2----2--3----3----------|----------------------------------|
    --4-----4--3----3--4----4----------|-----------------------2--2-------|
    ---------------------------0-------|--2----2--4----4--2----2--4-------|
    ---------------------------0-------|--0----0--0----0--0----0--0----0--|
    ---------------------------0----0--|----------------------------------|
    
    
    
    -------------------------------0--|-------0--4--0--4--0-----------------|
    -------------------------------0--|-------0--3--3--3-----3--0-----------|
    ----------------------------------|----------4-----4-----4-----2--0--1--|
    --2----2--4----4--2-------4-------|-------------------------------------|
    --0----0--0----0--0----0--0-------|--2----------------------------------|
    ----------------------------------|--0-------------------------------0--|
    
    
    
    --0----0-----------------0---------|----------2---2--------------------|
    --0----0--3--2--0--------0---------|-------0--0--------0---------------|
    --1----------------2--0--1---------|----------2-----2-------2----------|
    -----------------------------------|-----------------------------------|
    -----------------------------------|--2----------------2-------2----0--|
    ----------------------------0------|-----------------------------------|
    
    
    
    --------------------------------|-------0--4--0--4--0----------------|
    --------------------------------|-------0--3--3--3-------0-----------|
    --------------------------------|----------4-----4----------2--0--1--|
    --2----2--4-------2------4------|------------------------------------|
    --0----0--0----0--0------0------|------------------------------------|
    --------------------------------|--0------------------------------0--|
    
    
    
    --0----------------------------0-9--|
    --0-------0----0----0-----0----0-10-|
    --1-----------------------2----0----|
    -----------------------1------------|
    -------2---------------2------------|
    ------------------------------------|
    
    
    
    --10--10--10--10--10--10--10--10--10--9-----9---|
    --12--12--12--12--12--12--12--12--12--10----10--|
    ------------------------------------------------|
    ------------------------------------------------|
    ------------------------------------------------|
    ------------------------------------------------|
    
    
    
    --7----------------------------0--|
    --8----------------------------0--|
    -------9--------------------------|
    -------9--4----4--2----2--4-------|
    ----------0----0--0----0--0-------|
    ----------------------------------|
    
    
    
    --10--10--10--10--10--10--10--10--10--10--10--10-9--|
    --12--12--12--12--12--12--12--12--12--12--12--12-10-|
    ----------------------------------------------------|
    ----------------------------------------------------|
    ----------------------------------------------------|
    ----------------------------------------------------|
    
    
    
    --10--10--10--9---9---9---7---------------|
    --12--12--12--10--10--10--8---------------|
    -------------------------------9----------|
    -------------------------------9-------2--|
    ----------------------------------0----0--|
    ----------------------------------0-------|
    
    
    
    -----------0-----0--7--6--5--3----0--|--7--6--5--3--5--3--0-----0--0----0--|
    ------0-2-----2----------------------|-----------------------2-----5-------|
    --2-------------------------------0--|-------------------------------------|
    --2----------------------------------|-------------------------------------|
    -------------------------------------|-------------------------------------|
    -------------------------------------|-------------------------------------|
    
    
    
    ------3-4-0-4--4--4--4----4-----------|--4----4--3--3--4-------4------------|
    ------2-3---3--3--3--3----3-----------|--3----3--2-----3---------------0-2--|
    ------3-4---4--4--4--4----4-----2-----|--4----4--3-----4--------------------|
    --------------------------------------|---------------------------0---------|
    --------------------------------------|-------------------0-------0---------|
    --0--------------------------0-----0--|-------------------0-------0---------|
    
    
    
    --2--0--0--9--8--7--5-----------------|--0----0--7--6--5--3--5--3--0-------|
    --------7----------------5-----5---2--|------------------------------------|
    -------------------------------4-2----|------------------------------------|
    ----------------------------5---------|-------------------------------0----|
    --------------------------------------|------------------------------------|
    --------------------------------------|------------------------------------|
    
    
    
    --0----0--4--0--4--0-----------------|--0--------------------------------|
    -------0--3--3--3--3--3--0-----------|--0-------0----0----0-----------0--|
    ----------4-----4-----------2--0-----|--------------------------2---0-1--|
    ----------------------------------2--|-----------------------1-----------|
    -------------------------------------|-------2---------------2-----------|
    -------------------------------------|-----------------------------------|
    
    
    
    ----------------------------------|----------------------------------|
    ----------------------------------|----------------------------------|
    ----------------------------------|-------------------------------0--|
    -------2--------------------------|--2----2--4----4--2----2--4-------|
    -------2--4----4--2----2----------|--0----0--0----0--0----0--0-------|
    --0----0--0-------0----0--0----0--|----------------------------------|
    
    
    
    ----------4--0--4--0-----------------|--0-------------------------0----------|
    --0----0--3-----3-----3--0-----------|-----3--2--0-----0----------0----------|
    --1-------4-----4-----------2--0-----|--------------2-----0-1-0-1------------|
    ----------------------------------2--|------------------------------------2--|
    -------------------------------------|-------------------------------0----0--|
    -------------------------------------|--------------------0----------0-------|
    
    
    
    ----------------------------------|----------------------------------|
    ----------------------------------|----------------------------------|
    ----------------------------------|----------------------------------|
    --2-------4----4--2-------4-------|--2-------4----4--4----2--2----2--|
    --0----0--0----0--0----0--0----0--|--0----0--0----0--0----0--0-------|
    ----------------------------------|----------------------------------|
    
    
    
    -------0--4--0--4--0-----0-----------|--0-----------------------0-----------|
    -------0--3--3--3--3--0--0-----------|--0--3--2--0-----0---0----0--------0--|
    ----------4-----4--------4--2--0-----|--0-----------2----0-1-------------2--|
    ----------------------------------2--|---------------------2-------------1--|
    --2----------------------------------|-----------------------------0-----2--|
    --0----------------------------------|-----------------------------0--------|
    
    
    
    --------2--------------------------|-----------------------------------|
    --0--------0-------0----0--0-------|--------------------------------0--|
    -----2--2-------2-------2--2-------|--2----2----------------------0-1--|
    --------------------------------2--|--2----2--4----2--2-------4-----2--|
    ---------------------------2----0--|--0----0--0----0--0----0--0--------|
    -----------------------------------|-----------------------------------|
    
    
    
    -------0------------------------------|--0----------------------------------|
    -------0------0-----------------------|--0----------0----0----------0-------|
    -----------------------3--------2-----|--0-1-0-1--------------2-----2-------|
    -----------0-----0--------------------|-------------------------------------|
    ---------4----------4-----4--3-----3--|--2-------2---------------2----------|
    --0-----------------------------------|----------------------------------0--|
    
    
    
    ----------------------------------|-------------------------------0--|
    ----------------------------------|-------------------------------0--|
    ----------------------------------|--2----2------------------0-------|
    ----------------------------------|--2----2--4----4--2----2----------|
    --2----2--4----4--2-------4----0--|--0----0--0----0--0----0--0-------|
    --0----0--0----0--0----0--0----0--|----------------------------------|
    
    
    
    -------0--4--------4--4--4--4--4--4-3-|--4--4--4--3--3--3--4-----4----------|
    -------0--3--3--3--3--3--3--3--3--3-2-|--3--3--3--2--2--2--3--3--3----------|
    ----------4--4--4--4--4--4--4--4--4-3-|--4--4--4--3--3--3--4-----4----------|
    --------------------------------------|-------------------------------------|
    --------------------------------------|----------------------------------0--|
    --0-----------------------------------|-----------------------------0----0--|
    
    
    
    ----------------------------------|--------------------------------0--|
    ----------------------------------|--------------------------------0--|
    ----------------------------------|-----------------------------0-----|
    --2----2--4----4--2----2--4----2--|--2----2--4-------2-------4--------|
    --0----0--0----0--0----0--0----0--|--0----0--0----0--0----0--0--------|
    ----------------------------------|-----------------------------------|
    
    
    
    --------0--3--2--0--------------0--0--|--0-------0--------------------0------|
    --------0--0--2--0-----2--0-----0--0--|--0-------0--3--2--0-----------0------|
    --------0--0--------2--------2-----2--|--0-1-0-1-------------2--0--1---------|
    --------------------------------------|-------------------------2------------|
    --0-----------------------------------|--------------------------------------|
    --0-----------------------------------|----------------------------0---------|
    
    
    
    ------------------------------------|---------------------------------|
    --------0--0-------0---0------------|---------------------------------|
    ----------------2--------2----------|---------------------------------|
    -----1---------------------------2--|--2----2--4-------2------4-------|
    --2--------2-------2--------2----0--|--0----0--0----0--0------0-------|
    ------------------------------------|------------------------------0--|
    
    
    
    -------0--4--0--4--0------------------|--0------------------------0----0-9--|
    -------0--3--3--3--3--3--0------------|--0-------0----0-----------0----0-10-|
    ----------4-----4-----------2--0----0-|--1------------------2----------0----|
    ----------------------------------2---|-------------------------------------|
    --2-------------------------------2---|-------2----------2-----2------------|
    --0-----------------------------------|-------------------------------------|
    
    
    
    --10--10--10--10--10--10--10--10--10--9---9---9---|
    --12--12--12--12--12--12--12--12--12--10--10--10--|
    --------------------------------------------------|
    --------------------------------------------------|
    --------------------------------------------------|
    --------------------------------------------------|
    
    
    
    --7----------------------------0--|
    --8----------------------------0--|
    ----------------------------------|
    ----------4-------2----2--4-------|
    -------7----------0----0--0-------|
    -------5--5----5------------------|
    
    
    
    --10--10--10--10--10--10--10--10--10--10--10--10--||
    --12------12--12--12--12--12--12--12--12--12--12--||
    --------------------------------------------------||
    --------------------------------------------------||
    --------------------------------------------------||
    --------------------------------------------------||…
  • INTRO:
    ------
    Am D Am
    G|---------------|------------------|-----------------|
    D|---R---R---R---|------------R-----|----R---R---R----|
    A|-----3---7---3/|-/5-5-5-5-5-------|------3---7---3/-|
    E|-5-------------|--------------3H4H|-H5--------------|
    
    VERSE…
  • INTRO: Em D C G A (x4)
    
    
    Em
    Don’t change your mind
    A
    I ain’t got the time to sit and wonder
    Em
    I’m doin’ fine
    A
    If you decide to leave, I won’t go under
    
    
    C G
    You know I’ve come this far without you
    D A
    It won’t be too hard…
  • [A] [C#7] [F#m] [D]
    [A] [E7] [A] [E7]
    
    Now [A] my friend Bill was just a [D] working lad
    And he [C#] liked to have his [D] fun.
    He'd like to [A] find a girl and get [E] comfortable
    When his [D] working day was [E7] done.
    
    He…
  • E A/E Am/E E (bis)
    (Intro)
    
    E A/E C#m F#
    I must be invisible ;
    G#m F# B B/A
    No one knows me.
    E A/E C#m F#
    I have crawled down dead-end streets
    D A E A/E Am/E E E A/E Am/E E
    On my hands and knees.
    
    E A/E C#m F#
    I was born…
  • INTRO: A G#m F#m B
    A G#m F#m E
    
    
    VERSE 1:
    
    A G#m F#m E
    Feels like someone’s put the hurt on me
    A G#m F#m B
    And it’s making me feel sad
    A B E A
    Feels like someone’s trying to turn me away
    A B E
    From the good times to the…
  • [E] [F#m] [G] [A] [E] [F#m] [G] [A]
    [E] [F#m] [G] [A] [E] [F#m] [G] [A]
    [E] [F#m] [G] [A] [E] [F#m] [G] [A]
    [E] [F#m] [G] [A] [E] [F#m] [E]
    
    [A] [D] [A] [D] [A] [D] [G] [D] [A]
    [A] [D] [A] [D] [A] [D] [G] [D] [A]
    
    I was…
  • I got the [A] key to the [E] highway,
    [D] Billed out and bound to go.
    I'm gonna [A] leave here running;
    [E] Walking's much too [A] slow. [D] [A] [E]
    
    I'm going [A] back to the [E] border
    [D] Woman, where I'm better known.
    You…
  • Intro
    C
    |-----------------------0-----|---0---------0--0---0--0--0--0--0--0---0---|
    |-----------------------0-----|---1---------1--1---1--1--1--1--1--1---0---|
    |-----------------------0-----|---0---------0--0---0--0--0--0--0--0---0---|
    |-----------------------0-----|---2-----2---2------2-----2--2--2------0---|
    |-----------------------------|---3-----3----------------3--3--2------0---|
    |----0----0--1---1--2---------|---------------------------------------0---|
    
    G
    |--------3---3----------------------------------------------------|
    |--------0---0----------------------------------------------------|
    |---0----0---0---------------------------0-------0------0-----0---|
    |---0----0---0-------------0---0----0/2------2------2---------0---|
    |---2-------------0/2---------------------------------------------|
    |---3-------------------------------------------------------------|
    
    C…
  • G
    I don't care if you never come home
    C G
    I don't mind if you just keep on rolling away on a distant sea cause
    D * G
    I don't love you and you don't love me.
    
    
    G
    The cause of commotion when you come to town
    C
    Give 'em a smile…
  • G
    Well I don't know who I am
    D
    driving in a Pontiac just about the rules my mind
    
    I was going nowhere zone
    
    maybe only California
    G
    even no living to find.
    
    My mama called me crazy
    
    my daddy said I'm lazy
    D
    gonna show 'em…
  • e|---------|
    B|---------|
    G|---------|
    D|-------4-|
    A|-6-7-----|
    E|---------|
    
    FIRST VERSE
    
    e|-----------------|-----------------|--------|----------------|
    B|-----------------|-----------------|--------|----------------|
    G|-----------------|-------464-------|--------|--------------4-|
    D|-6-------------4-|-6----------/6-4-|---2----|------2/6---7---|
    A|-----------------|-----------------|-----4--|----------------|
    E|-----------------|-----------------|--------|----------------|
    
    e|-----------------|-----------------|-------|-----------------|
    B|-----------------|-----------------|-------|-----------------|
    G|---------------46|-4---------------|-------|-----------------|
    D|-----------------|-------6~---/6-4-|-------|---------------4-|
    A|-----------------|---------7-------|-------|-------6-7-------|
    E|-----------------|-----------------|-------|-----------------|
    
    e|-----------------|-----------------|--------|----------------|
    B|-----------------|-----------------|--------|----------------|
    G|-----------------|----/6-4---------|--------|----------------|
    D|/6-------------4-|-6-----------6-4-|---2----|--------------4-|
    A|-----------------|-----------------|-----4--|------6-7-------|
    E|-----------------|-----------------|--------|----------------|
    
    e|-----------------|-----------------|-------|-----------------|
    B|-----------------|-----------------|-------|-----------------|
    G|-----------------|-----------------|-------|------/4-6--/8---|
    D|-6-------------67|-6-----4~2----/4-|-2-----|-----------------|
    A|-----------------|-----------------|-------|-----------------|
    E|-----------------|-----------------|-------|-----------------|
    
    SECOND…
  • Em G
    (e) |------|------|----------------------------|----------|
    (B) |------|------|---12-----------------------|----------|
    (G) |------|------|------14--12h14p12----12-12-|---14-----|
    (D) |------|------|-------------------14-------|----------|
    (A)…
  • TUNING: E B E G# B E
    
    E (w RIFF)
    Go down easy and let me take my time
    A E (w RIFF)
    Go down easy and let me take my time
    G F# F E (w RIFF)
    Rock me slow till I lose my mind
    
    Roll it over, let's take it from behind
    Roll it…
  • INTRO riff 1
    e|--------------|------------------------------------------|
    B|--------------|*--7--5-----7-------------5b----5b-------*|
    G|--------------|---7--5--7--7-------------5b----5b--------|
    D|-------5~--7--|---------7---------5--7------7-------5--7-|
    A|--/7~---------|*-----------------7-----------------7----*|
    E|--------------|---------play-this-riff-4-times-----------|
    
    
    riff…
  • INTRO: (play Lick #1)
    
    
    Em - C - D (x4) (then play Lick #2)
    
    
    Em C D Em C D
    How can I explain it, this feeling it’s true
    Em C D Em C D (play Lick #3)
    Honey I can’t hardly stand it, I wanna make love to you
    
    
    Em C D Em C…
  • INTRO: E G A B D B
    
    
    VERSE 1:
    
    (B) A7 A7[*]
    I don't want to lose this good thing that I've got
    E
    If I do, I would surely, surely lose a lot
    A7 A7[*]
    'Cause your love is better than any love I know
    
    
    CHORUS:
    
    (A7) E A7
    It's…
  • INTRO: C Bb F
    
    
    VERSE 1:
    
    C Bb F
    You leave a trail of tears wherever you go
    C Bb F
    One of us will hold you, the other one won’t
    C Bb F
    But I could never share your love or leave it behind
    Dm F G C
    Break his heart, not mine
    
    
    VERSE…
  • Main Riff.
    E
    , . , . , . , . , . , . , . , . , . , . , . , . , . , . , . , .
    ||------------------|-----------------|-----------------|-----------------|
    ||------------------|-----------------|-----------------|-----------------|
    ||------------------|-----------------|-----------------|-----------------|
    ||--------2------(2)|-------2------(2)|-------2------(2)|-------2------(2)|
    ||--------2-----4---|-------2-----4---|-------2-----4---|-------2-----4---|
    ||--0---------------|-0---------------|-0---------------|-0---------------|
    
    A…
  • A
    There is nothing that is wrong
    D
    in wanting you to stay here with me.
    A
    I know you've got somewhere to go
    D
    but won't you make yourself at home and stay with me?
    E
    And don't you ever leave.
    
    A D
    Lay down, Sally, and rest…
  • -------------------0--------------------------------------------------------
    -------------------2--------------------------------------------------------
    -------------------0------------------------------------------0---------0---
    -------------------2------------------------------------------2------0--2---
    -------------------0------------------------------------------2---2--0--2---
    --------------------------------------------------------------0---------0---
    The…
  • Intro 2x than words :
    G7 B C D G
    E--------------------------------------------------------
    b--------------------------------------------------------
    g---------4---4--4--4--5--7~-----------------------------
    d---------3---3--4--4--5--7~-----------5--5--------------
    a---------5---5--2--2--3--5~-----------5--5--------------
    E---------3---3------------------------3--3--------------
    a)…
  • D D/C G Bb
    Heard you talking and I thought I heard you say
    D D/C G Bb
    Yeah, "Please leave me alone
    D D/C G Bb
    Nothing in this world can make me stay
    D D/C G Bb C G7 D
    I'd rather go back, I'd rather go back home"
    
    CHORUS:
    G…
  • Cadd9/G AmGadd11
    |---------0-------|---------0-------|---------0-------|---------0-------|
    |-------3---3-----|-------3---3-----|-------3---3-----|-------3---3-----|
    |-----5-------5---|-----5-------5---|-----5-------5---|-----5-------5---|
    |---5-----------5-|---5-----------5-|---4-----------4-|---4-----------4-|
    |-----------------|-----------------|-0---------------|-0---------------|
    |-3---------------|-3---------------|-----------------|-----------------|
    
    Cadd9/G…
  • |-3-| |-3-| |-3-| |-3-| |-3-| |-3-| |-3-| |-3-|
    (e) |--9-9-9--9-9-9--9⁄--|--9-9-9--9-9-9--9⁄--|--9-9-9--9-9-9-/9-9-9--9-9-9--|
    (B) |--9-9-9--9-9-9--9⁄--|--9-9-9--9-9-9--9⁄--|--9-9-9--9-9-9-/9-9-9--9-9-9--|
    (G) |--------------------|--------------------|------------------------------|
    (D)…
  • Intro : |: C G F C G :|
    
    C D7 G7 E Am G F
    She took my hand and tried to make me un-der-stand
    D7 G D G
    That she would always be there
    C D7 G7 E Am G F
    But I looked away and she ran away from me today
    D7 G Em Am
    I'm such a…
  • INTRO: A D7 A D7
    A D7 A D7
    A E
    
    A
    Smile though your heart is aching
    Amaj7
    Smile even though it's breaking
    F#m D/F# Bm F#
    Though there are clouds in the sky, you'll get by
    E F# Bm A Dm
    If you smile through your fears and…
  • ** Capo on the 4th fret! **
    
    
    
    G F C Am
    May you never lay your head down
    G C
    Without a hand to hold
    Am G C F C
    May you never make your bed out in the cold
    
    
    G F C Am
    And may you never lose your temper
    G C
    If you get hit…
  • E(2) A E RIFF
    This city mean old world, try livin' by yourself
    A A E RIFF
    This city mean old world, try livin' by yourself
    B A E RIFF
    Can't get the one you love, have to use somebody else
    
    I've got the blues, gonna pack…
  • RIFF
    (e) |------10----------12~~~~--&-----|------|
    (B) |---12----10---------------&-10--|--12--|
    (G) |------------12-9----------&-----|------|
    (D) |--------------------------&-----|------|
    (A) |--------------------------&-----|------|
    (E)…
  • D Dsus4 D
    ------2---3---5-2-----2---3-2-0----
    --------3-----------3---3-------3--
    ---2--------2----------------------
    -0---------------------------------
    -----------------------------------
    -----------------------------------
    
    -----2----3---5-2-----2---5---3----
    --------3-----------3---3---3---3--
    ---2--------2----------------------
    -0---------------------------------
    -----------------------------------
    -----------------------------------
    
    D…
  • Intro: E C#m F#m Am E
    
    E
    In the rolling night
    C#m
    In the stardust of a pale moonlight
    F#m
    I think of you in black and white
    Am E
    when we were made of dreams
    
    E
    I walked alone through the shady streets
    C#m
    Listening to my…
  • Am G Em Am
    E|-------------|--------------|--------------|--------------|
    B|-1-------1---|----0---------|----0---------|--------------|
    G|-----2-------|---0----------|---0--2-0-----|---2----------|
    D|-------------|--0-----------|--2-----------|--2-----------|
    A|-0-----------|--------------|--------------|-0------------|
    E|-------------|-3--------2---|-0------------|--------------|
    
    
    Am…
  • Intro: B E B E B E B a few times
           (barre your index finger at the 7th fret: shortest way)
    
    Verse:
    B E B E B E ----> same pattern as intro
    Blue sky upon the horizon,
    B E B E B E
    Private eye is on my trail,
    A D A D etc.…
  • Intro/Chorus:
    
    C G
    |--/-12--⁄-8-----3--2--3--2--1-------------|
    |-------------------------------3--0-------|
    |------^-----------------------------------| (play twice)
    |----slide---------------------------------|
    |----guitar--------------------------------|
    |------------------------------------------|
    
    C…
  • C F C C7
    I got the Blues from my baby livin by the San Francisco bay,
    F C C7
    The ocean-liner not so far away.
    F
    I didn't mean it treat her so bad,
    C A7
    She was the best girl I ever ever had.
    D7/F# G7
    I said goodbye, I can…
  • [G] [C] [G] [C] [G] [C] [G] [C]
    
    [G] The dogs are [C] howling at the [G] midnight [C] moon. [G] [C] [G] [C]
    [G] I'm on my [C] way to where the [G] black rose [C] blooms. [G] [C] [G] [C]
    [C] The mountain's [Em/B] high, the…
  • INTRO: A A7 D E (x2)
    
    
    VERSE 1:
    
    A
    I remember yet before we met
    A7
    When every night and day
    D E
    I had to live the life of a lonely one
    A
    And I remember meeting you
    A
    Discovering love could be so true
    D E
    When shared by two,…
  • Intro: G G C D G
    
    Verse 1:
    
    G Am
    I got up this morning and fell out of bed
    D G
    Trying to make it to the door
    Am
    The wind was high, I didn't have much time
    D G D
    Trying to find a man to score
    Em Am
    And then you came up on…
  • E E7 A A7
    (e) |-------------|-------------------|------------|-----------------|
    (B) |----/12-12---|---12-12-10-8------|------------|-----------------|
    (G) |-------------|--------------9~~~-|-7/9~~~~~~~-|-7/9~~~-9/7------|
    (D)…
  • First the intro...
    
    E +----12-12-12-12-12-12-------5-5-5-5---------------------+
    B |----------------------------4-4-4-4---------------------|
    G |----------------------------4-4-4-4---------------------|
    D |-12-------11-------10-9---4---4---4---------------------|
    A…
  • (Amaj7 = x06650, Amaj7 [2] = x02120, C#m7 = x46454, Cdim = x3424x
    has F#7 listed as 464544 = G#7)
    
    [Amaj7] Little man with his [B/A] eyes on fire [Cdim]
    And his smile so [C#m7] bright [B7]
    [Amaj7] In his hands are the [B/A]…
  • Main riff:
    E A E A
    ------------------------------------------
    ------------------------------------------
    -------------1-2--------------------------
    -0h2---2-2---2-2--0h2--2-2--------------0--
    -----------------------------5p4p0--0h2----
    -----0-----0---------0-----0---------------
    
    just…
  • -----------------------------------------------------------------------|
    -----------------------------------------------------------------------|
    -----------------------------------------------------------------------|
    ----------2-------------------------2----------------------------------|
    ------2-4---4-------2---4-------2-4---4-------2---4--------------------|
    --2-4-----------2-4---0-----2-4-----------2-4---0----------------------|
    
    
    "If…
  • Intro (This is basically the picking pattern for the whole song.)
    G C G Em D/F# G
    -----------------------------------------------------------------------3----
    ------------------------------------------------------0------------------0--
    --------0--------0------------0------0----------0-------0-------2----------0
    -------------------0------0^2----------0----------2-------2---0-------------
    ----0^2----2---------2--3----------------2----2-----------------------------
    --3-----------------------------3-----------0---------------2-----3---------
    
    G…
  • INTRO: F#m Em (x4)
    
    VERSE 1:
    
    Bm F#m
    Life is what you make it
    Bm F#m
    That's what the people say
    Bm F#m F#m Fm Em A
    And if I can't make it through tomorrow
    F#m Em (x4)
    I better make it through today
    
    VERSE 2:
    
    Bm F#m
    I have…
  • (walk to) A (walk to) D (walk to) A
    
    E7 A D A
    It's too late, she's gone
    D
    It's too late, my baby's gone
    A
    Wish I had told her she was my only one
    E A
    It's too late, she's gone
    
    E7
    It's a woman that cries
    So I guess I'd better…
  • Main riff (played during intro & chorus):
    
    G C Dm C
    |---3--3----3--3---------5--5-----------------|
    |---3--3----3--3----5----6--6----5--5---------|
    |---4--4----4--4----5----7--7----5--5---------|
    |---5--5----5--5----5----7--7----5--5---------|
    |---5--5----5--5----3----5--5----3--3---------|
    |---3--3----3--3------------------------------|
    
    The…
  • Intro: first time, no lead
    
    E / / / A / / / E / / / B / / /
    
    second time, play chords
    
    E / / / A / E / / / B / E / / /
    
    with
    
    E A E
    -------------------------------------------------------------------------
    -------------------------------------------------------------------------
    ----------9--11--9--11b13-------13r11--9------9--------------------------
    ----9--11---------------------------------11-----------------------------
    -11----------------------------------------------------------------------
    -------------------------------------------------------------------------
    
    E…
  • Emaj7 F#m/E
    There's a thorn tree in the garden, if you know just what I mean
    Emaj7 F#m/E
    And I hate to hurt your feelings but its not the way it seems
    Emaj7 F#m/E Emaj7 F#m/E
    'Cause I miss her
    
    Emaj7 F#m/E
    She's the only…
  • Intro:
    > |---------------------------------| 
    > |---------------------------------| 
    > |---------------------------------| 
    > |---------------------------------| 
    > |-----------3-------(3h)-5/⁄/⁄/⁄/⁄| 
    > |---3-h-5-------5-----------------|…
  • D E G D G D A7
    Dear Lord, give me strength to carry on
    D D7 E A
    Dear Lord, give me strength to carry on
    D D7
    My home may be out on the highway
    G E G
    Lord I've done so much wrong
    D E G D G D D7
    Please give me strength to…
  • INTRO:
    
    G C D
    G C D
    
    
    G D C G
    As I was strolling down the garden path
    D C G
    I saw a flower glowing in the dark
    D C G
    It looked so pretty and it was unique
    D C G
    I had to bend down just to have a peek
    
    
    CHORUS
    Bm7 Am7
    Hello…
  • INTRO: A C D C (x4)
    
    A C D C A C D C
    Well I can't read and I can't write
    A C D C A C D C
    And I don't know my left from right
    
    C D
    I can't tell if the sun's gonna shine
    C D
    And I don't know if you'll ever be mine
    A C D C
    But…
  • Intro [2X]:
    
    (several guitars arr. for two; acoustic plays chords indicated)
    
    Guitar 1 (left channel)
    
    A G
    v v v v v v v v
    -0---------------|-----------------
    -5---5---5-3-5-8-|-----------------
    -----------------|---7-------------
    -----------------|-----------------
    -----------------|-----------------
    -----------------|-----------------
    
    Guitar…
  • [Am] [Am7/G] [Am6/F#] [Fmaj7]
    [Am] [G] [D] [E7]
    
    I [Am] look at you [Am7/G] all, see the [Am6/F#] love there that's [Fmaj7]
    sleeping
    [Am] While my gui[G]tar gently [D] weeps [E7]
    I [Am] look at the [Am7/G] floor and I [Am6/F#]…
  • F# B C# F#sus F# E A B
    
    C# Fm
    Holding you, you holding me
    F# G# C# Fm F# G#
    Everyone could see we were in ecstasy
    C# Fm
    Making love against the wall
    F# G# F# E
    Feeling very small when we didn't need to be
    
    CHORUS:
    A Emaj7…
  • C F
    Bet you didn't think I knew how to rock 'n' roll
    C
    Lord I got the boogie-woogie right down in my very soul
    D G
    There ain't no need for me to be a wallflower
    C
    'Cause now I'm living on blues power
    
    F C F G
    
    C F
    I knew…
  • INTRO: Dm Am G (x2)
    
    
    VERSE #1:
    Dm Am G
    You've been told, so maybe it's time that you learned
    Dm Am G
    You've been sold, maybe it's time that you earned
    
    
    CHORUS:
    Am F G
    I can't stand it, you're fooling around
    Am F G
    I can't…
  • |------------------------------4--2-0-4-5-5/7-5h7p5--3h5p3-3---3/6⁄0------|
    |-5----5⁄2-0------------5--4/5--------------------------------------------|
    |------------0h2p0--------------------------------------------------------|
    |------------------2------------------------------------------------------|
    |-------------------------------------------------------------------------|
    |-------------------------------------------------------------------------|
    
    |-----3---5---3----------------------------------|
    |-3/5---5-------5-3------------------------------|
    |-------------------4p2---2----------------------|
    |-----------------------5---2h5-------------9----|
    |--------------------------------5-3p0-----------|
    |--------------------------------------3--0------|
    
    *…
  • [Gm] [F] [Dm] [C]
    [Gm] [F] [Dm] [C] [Am7]
    
    Repeat main riff twice for each line of the verses:
    [D] [D] [C] [C] [G/B] [G/B] [Bb] [C]
    
    In the white room with black curtains near the station.
    Blackroof country, no gold pavements,…
  • G
    I know a cat named Way Out Willie
    
    Got a cool little chick named Rockin' Millie
    C
    He can walk and stroll and Suzy-Q
    G
    Do the crazy hand jive too
    
    Momma momma look at uncle Joe
    Doin' the hand jive with sister Flo
    Uncle…
  • intro riff ----------------X
    ----------------X----
    ----------------X---------
    ------2---4-----X-----------
    --/4------------X------------
    
    *there's a lot of pick scraping in the song so add it into the riffs to
    create the…
  • E|-----------------------||
    B|-----------------------||
    G|-----------------------||
    D|------7-7--5-5---------|| X4
    A|----------------7-7----||
    E|-5-5-------------------||
    
    E|-----------------------||
    B|-----------------------||
    G|------7-7--5-5---------||
    D|----------------7-7----||…
  • INTRO (Solo on verse)
    
    D7 G7 G7/G# D7 Bm7 Em7 A7 D G7 D7 A7
    
    VERSE 1
    
    D7 D9
    I got to ride, that lonesome train
    G7 G7/G#
    My heart is heavy, with aches and pains
    D7 Bm7
    I said but someday, someday baby
    Em7 A7 D G7 D7 A7
    After…
  • -----------0-----------------------0-----------------------3--------2-----
    --------2-----------2-----------2-----------2-----------3--------------3--
    -----2-----------2-----2-----1-----------1-----1-----0-----------0--------
    --------------------------------------------------------------------------
    --------------------------------------------------------------------------
    --2-----------2-----------0-----------0-----------3-----------3-----------
    
    
    -----------------------------------0-----------------------0--------------
    -----------0-----------0--------2-----------2-----------2-----------2-----
    --------2-----------2--------2-----------2-----2-----1-----------1-----1--
    -----2-----------2--------------------------------------------------------
    --0-----------0-----------------------------------------------------------
    --------------------------2-----------2-----------0-----------0-----------
    
    
    -----------3-----------3-----------2-----------------------2--------------
    --------3-----------2-----------0-----------0-----------0-----------0-----
    -----0-----------2-----------2-----------2-----2-----1-----------1-----1--
    --------------------------0-----------0-----------0-----------0-----------
    --------------0-----------------------------------------------------------
    --0-----------------------------------------------------------------------
    
    
    -----------0--------------------------------------------------------------
    --------0-----------0--------------3-----------0-----------2-----------2--
    -----2-----------2-----2--------2-----------2-----------1-----------1-----
    -----------------------------0-----------0-----------2-----------2--------
    --4-----------4-----------2-----------------------0-----------0-----------
    --------------------------------------0-----------------------------------
    
    
    -----------------------------------------------
    -----------0-----------0-----------0--------0--
    --------2-----------2-----------2--------2-----
    -----0-----------0-----------0-----------------
    -----------------------------------------------
    --2-----------2-----------0-----------0--------…
  • INTRO:
    (listen to recording to get exact strumming pattern)
    
    A A
    |----------0-0-0--0-0-0--0-0------------0-0-0--0-0-0-0-0---------|
    |----------2-2-2--2-2-2--2-2------------2-2-2--2-2-2-2-2---------|
    |----------2-2-2--2-2-2--2-2------------2-2-2--2-2-2-2-2---------|
    |----------2-2-2--2-2-2--2-2------------2-2-2--2-2-2-2-2---------|
    |------0---0-0-0--0-0-0--0-0--------0---0-0-0--0-0-0-0-0---------|
    |--0-2-------------------------0-2--------------------------0-2--|
    
    
    MAIN…
  • G|---52-0-|---0----|--------|---0---0|-
    D|--2-----|----2-0-|---30---|----202-|-
    A|-3------|--2-----|--x---3-|--2-----|-
    E|--------|-3------|-1------|-3------|-
    
    this is the riff for the verse, repeat as needed
    
    G|---2----|--------|---2----|--------|---2----|--------|---2----|--------|-
    D|----2---|---3----|----2---|---3----|----2---|---3----|----2---|-------0|-
    A|-03---3-|--0-3---|-03---3-|--0-3---|-03---3-|--0-3---|-03---3-|--03--2-|-
    E|--------|-1----34|--------|-1---234|--------|-1----34|--------|1---3---|-
    
    chorus…
  • D G D
    Oh my word what does it mean?
    D G D
    Is it love or is it me
    Em
    That makes me change so suddenly
    Bm G D
    Looking out feeling free
    
    Sit here lying in my bed
    Wondering what is was I'd said
    Made me think I'd lost my head
    When…
  • Intro: Am  G  Am  G  Am  G  Am  G 
           Am  G  Am  G  Am  G  Am  G 
    
    Am  G 
    Got to find me a way 
    Am  G
    To take me back to yesterday. 
    F  C  E
    How can I ever hope to forget you? 
     
    Am  G
    Won't you show me a…
  • Dm C
    Got to find me a way
    Dm C
    Take me back to yesterday
    Bb F A
    How could I ever hope to forget you?
    Dm C
    Won't you show me a place
    Dm C
    Where I can hide my lonely face?
    Bb F A
    I know you're going to break my heart if I…
  • ---------------|--------------------------------|--------------------------|
    ---------------|---------------------3---3------|---5---5---5--------------|
    ------------2--|---------------------3---3------|---5---5---5--2---------2-|
    ------------0--|----0--------3-------3---3------|---5---5---5--0---------0-|
    -----0---3-----|--------3----1-------1---1----3-|---3---3---3------0--3----|
    ---------------|--------------------------------|--------------------------|
    
    ---1-------------------------|---------------------------------------------|
    ---3-----------------3--3----|---5-----------------------------------------|
    ---2-----------------3--3----|---5----------2------------------------------|
    ---------------3-----3--3----|---5-----5----0--------------0---------------|
    -----------3---1-----1--1--X-|---3--0--3-----------0---3-------------------|
    -----------------------------|---------------------------------------------|
    
    
    -1----1----------------|----------------------|----------------------------|
    -3----3----------------|--------------------5-|565----5-6-5----5-6/8-----|
    -2----2----------------|------------------7---|------7--------7------------|
    -0----0---X--3--3----3/|-5--5--5---7----7-----|----------------------------|
    -------------1--1----1/|-3--3--3---5----------|----------------------------|
    -----------------------|----------------------|----------------------------|
    
    
    --------------------8----------|-10-12-10/12/10----10----------------------|
    --6--8/10----8--10------10…
  • E]----------------------------------------------------------]
    B]----------------------12-12-12P10P8H10-8H10-12-12P10P8----]
    G]-9-7H9------------9-12---------------------------------9--]
    D]------9-7-------------------------------------------------]
    A]-----------7-7--------------------------------------------]
    E]----------------------------------------------------------]
    
    E]--------------------------------------------------]
    B]------8-10-8--------------------------------------]
    G]--7-9--------7H9-7--------------------------------]
    D]-------------------9P7----------------------------]
    A]-----------------------7-7------------------------]
    E]--------------------------------------------------]…
  • Intro: A7, B7
    
    
    B7
    I dreamed I did a good job and I got well paid
                               E7
    Blew it all at the penny arcade
    B7
    A hundred dollars on a kewpie doll
                                            E7
    I guess no…
  • ------------------------------------------------------------------------------|
    ---2---------2----------3---------3-------------------------------------------|
    -------2---------1----------2---------2---------------------------------------|
    -----0---------0----------0---------0-----------------------------------------|
    ------------------------------------------------------------------------------|
    -2---------0----------3---------2---------------------------------------------|…
  • e--------------------------------------------------------------------|
    B--------------------------------------------------------------------|
    G--------3-----------------------------------------------------------|
    D--3-5-5---5-3-----------0------------------3----5----3--------------|
    A--------------5---1-3-3---3-1------1-------1----3----1--------------|
    E------------------------------3-------3-----------------------------|…
  • |--------0-----------0-----------0-----------0---------|
    |------6---6-------6---6-------6---6-------6---6-------|
    |----5-------5---5-------5---4-------4---4-------4-----|
    |--0-----------0-----------0-----------0---------------|
    |------------------------------------------------------|
    |------------------------------------------------------|
    
    |--------0-----------0-----------0-----------0---------|
    |------6---6-------6---6-------6---6-------6---6-------|
    |----5-------5---5-------5---4-------4---4-------4-----|
    |--0-----------0-----------0-----------0---------------|
    |------------------------------------------------------|
    |------------------------------------------------------|
    
    |------------------------------------------------------|
    |--------5-----------5-----------3-----------3---------|
    |------5---5-------5---5-------4---4-------4---4-------|
    |----3-------3---3-------3---3-------3---3-------3-----|
    |--0-----------0-----------0-----------0---------------|
    |------------------------------------------------------|
    
    |---------------------------------------|
    |--------3-----------3------------1-----|
    |------0---0-------0---0--------0---0---|
    |----2-------2---2-------2----2---------|
    |--0-----------0------------0-----------|
    |---------------------------------------|
    
    |------------------------------------------------------|
    |--------5-----------5-----------3-----------3---------|
    |------5---5-------5---5-------4---4-------4---4-------|
    |----3-------3---3-------3---3-------3---3-------3-----|
    |--0-----------0-----------0-----------0---------------|
    |------------------------------------------------------|
    
    |------------------------------------------------|
    |--------3-----------3------------2------3---5---|
    |------0---0-------0---0--------2---2------------|
    |----2-------2---2-------2----2-------2----------|
    |--0-----------0------------0--------------------|
    |------------------------------------------------|
    
    Play…
  • verse:
    
    G---------------------------
    D--5--5-4----------9-7-5----
    A---------5-7-------------7-
    E--------------5------------
    
    G---------------------------
    D--5--5-4-------------------
    A---------5-7-----------5---
    E--------------5--5-7-8-----
    
    
    chorus:
    
    G----------------------------
    D--5---------------9-7-5-----
    A----5-7-5--5-7-----------7--
    E----------------5-----------
    
    G----------------------------
    D--5-------------------------
    A----5-7-5--5-7----------5---
    E---------------5--5-7-8-----…
Наверх