Аккорды «Face To Face»

Face To Face
На дворе стояли ранние девяностые годы, когда 3 паренька из Южной Калифорнии Trever Keith, Matt Riddle и Rob Kurth подумали: «А почему бы нам не приложиться к увлекательному punk revival движению и не забацать классную панк группу?» Тревер, как основатель группы, смело взял на себя роль вокалиста, а по совместительству еще и побренькивал на гитаре. Мэт терзал бас-гитару, а Роб барабанную установку. Причем, оба еще и подпевали голосистому Треверу. По началу банда именовалась Zero Tolerance, но быстро… Читать полностью... На дворе стояли ранние девяностые годы, когда 3 паренька из Южной Калифорнии Trever Keith, Matt Riddle и Rob Kurth подумали: «А почему бы нам не приложиться к увлекательному punk revival движению и не забацать классную панк группу?» Тревер, как основатель группы, смело взял на себя роль вокалиста, а по совместительству еще и побренькивал на гитаре. Мэт терзал бас-гитару, а Роб барабанную установку. Причем, оба еще и подпевали голосистому Треверу. По началу банда именовалась Zero Tolerance, но быстро выяснилось, что это слишком стандартное название (даже игрушка такая компьютерная есть), и группа взяла на рассмотрение французскую фразу vis a vis, что по сути и значит Face To Face. Дебютировать калифорнийцы решили под опекой Dr. Strange Records, где выпустили нынче классический «Don’t Turn Away», а так же засветились на мечте любого коллекционера — «A Strange Compilation» (ограниченный тираж соответственно). Успех группы рос, вся Калифорния буквально узнавала их по первым аккордам, и еще один смекалистый паренек — Fat Mike (да-да тот самый из NOFX!) подумал, что у группы есть нехилый потенциал и перетянул ее на свой крошечный лейбл Fat Wreck Chords, где был успешно перевыпущен «Don’t Turn Away». После чего послал группу… в европейское турне вместе с Lagwagon. Последние, по видимому, каким-то образом повлияли на Face To Face, потому что группа решила, что для полной гармонии с музыкальном миром ей не хватает четвёртого члена, то есть не то, чтобы кто-то был недоволен количеством своих детородных органов, а… в общем, встречайте и любите Chad Yaro! После прихода Чада, Face To Face переметнулись на Victory Music (которые, кстати, в 1995 банкротировали, но, думаю, группа к этому не причастна). На «победном» лейбле был выпущен EP «Over It» и… угадайте что еще? – ну, конечно «Don’t Turn Away» в третий раз! Следующий полноценный альбом, который Chris Conley из Saves The Day окрестил саундтреком своей жизни, был назван «Big Choice». Для раскрутки пластинки с ее агрессивными и мелодичными песнями группа отправилась в турне с такими командами, как The Mighty Mighty Bosstones и The Offspring. «Тогда в 95-м я ошибался — я думал, что мир может измениться с помощью правильной песни», — пел Trever Keith. Но он не ошибался, мир действительно менялся от песен Face To Face. Молодые группы вдохновлялись их примером, идеи песен проникали в умы современных панков. После банкрота Victory Music группе было довольно-таки сложно продолжать свое существование на этом лейбле, и поэтому новым домом стали A&M Records. «Время перемен, так время перемен», — подумали Face To Face, и вместо Matt Riddle приняли на ответственный пост басиста Scott Shiflett. Стоит заметить, что талант Мэта не пропал даром, так как басовые партии в No Use For A Name исполняются не без его участия (и Мэта, и таланта, соответственно). Последующие годы наполнены сплошными разъездами, подборками песен для live альбома. Маленькие клубы, интимная атмосфера – неудивительно, что у группы наметились личные отношения с инди лебйлом Vagrant Records. Отношения были настолько личные, что Вагрант даже разрешил в своих недрах создать квартету собственную мини звукозаписывающую компанию Lady Luck Records. С помощью которой и, естественно, не без помощи Vagrant Records была выпущена та самая концертная пластинка. Неся радость слушателям, она заодно унесла из группы Rob Kurth, место которого не замедлил занять Pete Parada, пообещавший барабанить на четвертом полном альбоме за двоих. И ведь отлично барабанил! Не зря Aversion webzine назвал Ignorance is Bliss «действительно лучшим опытом группы в написании песен, что выводит команду на новые широты». 1999 так же ознаменован выходом «Standards and Practices», то есть группа разошлась не на шутку. Face To Face не желали отставать от времени и в поддержку цифровой музыки, интернета, да и просто из уважения к своим фанатам разместили 16 песен на www.mp3.com и попросили народ проголосовать за лучшую песню группы. Почти 2 миллиона голосов вылились в топ 12 песен и новую пластинку под названием «Reactionary». А за такую лояльность к mp3 формату Napster осенью того же года проспонсировал очередное турне. Мирное и дружелюбное расставание с Chad Yaro и квартет мигом превращается в трио. Расставание с одним другом уравновесилось возвращением к другому – 2002 год, Vagrant Records («наконец-то мы на лейбле, который знает, как надо продавать наши записи») и сплит с Dropkick Murphy’s. Ведете счет альбомам группы? Если да, то смело загибайте очередной палец на шестой альбом «How to Ruin Everything», вышедший в том же самом году. А в следующем, 2003-м, году Face To Face сделали свои фанатам ручкой («мы сказали то, что должны были сказать») и распались. Впрочем, с группой прощаться еще немного рано — Keith создал новый лебл Sound on Sound, на котором предстоит выйти DVD и прощальным дискам. 13 лет музыкальной деятельности, 6 альбомов, концерты с легендами панк-рока, признание коллег по музыкальной нише – все это определенно выделяет группе отдельную главу в истории рока и почетное место в сердцах слушателей. Скрыть...
Популярные аккорды Face To Face:
алфавиту | просмотрам | случайно
  • intro
    G:--------------------------------------------------------------- 
    D:---------------------------------------------------------------
    A:-5--0-0-0-0-0-10-10-7-3-5-0-0-0-0-0-10-10-7-3
    E:---------------------------------------------------------------…
  • Intro
    
    G-------------------------------
    D----5---3-2---5---3-5-----------
    A-333--33-3--33--33-------------
    E-------------------------------
    
    then
    
    G-------------------
    D----5--3-2--3-5----
    A-------------------
    E-333-33-3-33-------
    
    then
    
    G-----------------------------
    D-----------------------------
    A----7---6--5----5-7----------
    E-666--66--6--66--------------
    
    then
    
    G--------------------------
    D----3--2---2----2----2----
    A--------------------------
    E-111-11--0----0----0------
    
    Repeat…
  • B                       F#
      Back in '95 when this was new, I guess I didn't have a clue
       C#                                               E-7th  G#  F#
     I thought, the world, would change with the right song.…
  • Standard Tuning
    
    pm = pick muted
    
    Intro/Chorus (no rhythm indicated, very simple)
    
         F#m7 F#7add9   F#m7    Dsus2   F#m7  F#7add9   F#m7     D       D  
    (clean tone for intro) 
    |----0------0-------0-------0-------0-------0-------0-------2-----|
    |----5------5-------5-------3-------5-------5-------5-------3-----|…
  • * / is a slide-up
    * \ is a slide-down
    
    
    Verses
    "Ignorance and arrogance are quite the same to me..."
    "I find little entertains me anymore..."
    "Get in your self-assuredness and take it for a spin..."
    
    G-----------------------------------------------------------------------
    D-----------------------------------------------------------------------
    A-----5---------------5---------------/77777777-------------------------
    E-5-------2---0---5-------2---0-000000----------------------------------
    
    
    
    Chorus
    "You…
  • Intro/Chorus:
    
              G                C
     Right as rain... Right as rain...
             C                D
    You just kicked me in the teeth again,
    C              D
    Pushed away my only friends,
        C…
  • Intro: A - A -
    A F C G x's 4
    
    
    Em                  F                     G
      With a push and a shove that's how it's done, Believe it. 
    Em                    F           G
      Better yet from the barrel of a gun, If…
  • Intro: Bm, E, D, F#m    4x
    
    Verse :
      G         Em             D              A
    And I don't know what you came for Still around
      G         Em             D              A
    And I don't know what you came for Still around…
  • intro
    G:---------------------------------------------------------------  couple of times
    D:---------------------------------------------------------------
    A:--------------7>--------0>------------7>-------------------
    E:--5>----------------------------------------------------------…
  • here are the chords, now find out the rhythm by yourselves you punx
    
    [e:---------------------------------------------------------------------------
    B:---------------------------------------------------------------------------
    G:2-----2--7--2-----2-----7--2-----2-------------9--7------------------------
    D:2--2--2--7--2--2--2--2--7--2--2--2--2----------9--7------------------------
    A:0--2--0--5--0--2--0--2--5--0--2--0--2----------7--5------------------------
    E:---0-----------0-----0--------0-----0--------------------------------------]…
  • Riff
    E  -0---0--2--0---------|
    B  ---0-------------0---|
    
    Riff X 8
    
    BASS PLAYES C# OVER RIFF ON 2ND FOUR OF RIFF
    
    GUITAR IN -
    
    C#                                        A
    So whats the problem now this time?
    E
    I thought you'd…
  • Intro: 4x
    
    e ----------------------------------------------------
    B ----------------------------------------------------
    G ---------5-5-5--3-3-3--5-5-5------------------------
    D --3-3-3--5-5-5--3-3-3--5-5-5------------------------
    A…
  • One, Two, One, Two, Three, Four…
    
    A
    You don't know what you want to be
                                       E
    You don't know what you want to do
    A
    Never going to amount to much of anything…
  • Tuning: Standard
    
    
    Intro: (Guitar 1)
    e|---------------------------------------------------------------------------|
    B|---------------------------------------------------------------------------|
    G|4-4-4-4-4-4-4-4--2--2-2-2-2-2-2-2------------------------------------------|
    D|4-4-4-4-4-4-4-4--2--2-2-2-2-2-2-2------------------------------------------|4x
    A|2-2-2-2-2-2-2-2--0--0-0-0-0-0-0-0------------------------------------------|
    E|---------------------------------------------------------------------------|
    Intro:…
  • Don`t know the bass intro
    
        verse                                        x4
    G:--------------------------------------------------------------- 
    D:---------------------------------------------------------------
    A:---------3>--------------------------------------------------
    E:0>---------------3>-----------------------------------------…
  • - Intro
    (Just like everybody told you, You're a part of what you've done...)
    
    Guitar 1
    e|--------------------------------------------------------------------|
    B|--------------------------------------------------------------------|
    G|-------------------------------------------------5-5-5-5-4-4-4-4----|
    D|-2-2-2-2-2-2-2-2-6-6-6-6-6-6-6-6-7-7-7-7-7-7-7-7-5-5-5-5-4-4-4-4----|
    A|-2-2-2-2-2-2-2-2-6-6-6-6-6-6-6-6-7-7-7-7-7-7-7-7-3-3-3-3-2-2-2-2----|
    E|-0-0-0-0-0-0-0-0-4-4-4-4-4-4-4-4-5-5-5-5-5-5-5-5--------------------|
    PM…
  • Intro. The first 2 are played twice.
    e|--------------------------------------|
    B|--------------------------------------|
    G|-XX-7~-----XX-5~-----XX-9~-----XX-7~--|
    D|-XX-7~-----XX-5~-----XX-9~-----XX-7~--|
    A|-XX-5~-----XX-3~-----XX-7~-----XX-5~--|
    E|--------------------------------------|
    
    
    Verse(Part…
  • intro:
    |----------------|
    |----------------|
    |------14-----7--|
    |---7--14--5--7--|
    |---7--12--5--5--|
    |---5------3-----|
    
    Intro part 2 & chorus
    |---------------------------------------------|
    |---------------------------------------------|
    |--14----12------11-----12----------------7---|
    |--14-x8-12-x16--11-x1--12-x1--12---------7---|
    |--12----10------9------10-----12-x1--or--5---|
    |------------------------------10-------------|
    
    Verse
    |------------------|
    |------------------|
    |------------------|
    |---7--4--7--5-----|
    |---7--4--7--5-----|
    |---5--2--5--3-----|
    
    pre…
  • A   D
    A   D   hiE
    F#  A   hiE   D
    
    A   D
    A   D
    
    A                        hiE        D
     There's nothing here inside of these walls
    A             hiE         D
     I feel like I am so far away
    A…
  • Verse                                                    2nd verse first time
    e|-00-0-----------------------00-0-------------------------------------------|
    B|-00-0-----------------------00-0-------------------------------------------|
    G|-22-2----------6666666666---22-2-----------6666666666--6/8-8/9-11/11-------|
    D|-22-2--444444--6666666666---22-2--44-4444--6666666666--x/x-x/x--x/x--------|
    A|-00-0--444444--4444444444---00-0--44-2222--4444444444--4/6-6/7--7/9--------|
    E|-------222222---------------------11/2222----------------------------------|…
  • verse                                        x2
    G:--------------------------------------------------------------- 
    D:---------------5>--------------------------------------------
    A:-5>----5>---------------------------------------------------
    E:---------------------------------------------------------------…
  • Intro
    -----
    
    e|--------------------------------|
    B|--------------------------------|
    G|---------------6---4------------|
    D|---2---4---7---6---4------------|
    A|---2---4---7---4---2------------|
    E|---0---2---5--------------------|
    
    
    Whats…
  • Intro -
    
    e|---------------------------|                           
    B|---------------------------|                     
    G|-999999-11-9-7-99999-11-9--|                           
    D|-999999-11-9-7-99999-11-9--| 
    A|-777777-9--7-5-77777-9--7--|…
  • e:---------------------------------------------------------------------------|
    B:---------------------------------------------------------------------------|
    G:2-----2--7--2-----2-----7--2-----2-------------9--7------------------------|
    D:2--2--2--7--2--2--2--2--7--2--2--2--2----------9--7------------------------|
    A:0--2--0--5--0--2--0--2--5--0--2--0--2----------7--5------------------------|
    E:---0-----------0-----0--------0-----0--------------------------------------|…
  • 1. (intro)
    G-44444444-------------
    D----------------44444444-    =   Play Twice
    A-----------------------------
    E----------------------------
    On the Third :
    
    G-44444444--------------------------------------------876
    D--------------44444444-66666666-88888888-78
    A--------------------------------------------------------
    E---------------------------------------------------------
    
    2.…
  • A        F#       D        E-7th 
     It started, out, all wrong, I wasn't thinkin'
     A      F#        D        E-7th            C#
     Every, thing, is wrong, I couldn't see it
    
    Chorus/1:
               D…
  • begin:
    G|----------|
    D|-----2----|
    A|--2-----0-|
    E|----------|
    
    riff 1:
    G|----------------|
    D|----------------|
    A|--4>--------12>-|
    E|-----7>---5>----|
    
    riff 2:       x3               x1
    G|--------------|----------------|
    D|--------------|----------------|
    A|-----4>----7>-|----4>----------|
    E|--7>----5>----|-7>----5>--0>---|
    
    riff…
  • the first part  CUNT!
                              it is real easy!
    ----------------------------------
    ---------------------------------         REPEAT AWHOLE BUNCH O'TIMES!
    ----------------0 0 0 0 5-5-5-5--
    5-5-5-5-2-2-2-2----------------…
  • Intro:
    G|-------------------------------------------------------------------|
    D|-------------------------------------------------------------------|twice
    
    A|7-7-7773-33-3335-5-5550-00-0007-7-7773-33-3335-5-555/12-1212-121212|
    E|-------------------------------------------------------------------|
    
    //Guitars…
  • Tuning: Standard
    
    C                A            F                    G
    Well I feel alot better but I still can't find the cheer
    C                          A              F          G
    I wanna tell you about the way I…
  • Intro & Verse
    |-------------------------------------
    |-------------------------------------
    |-----5-5---------5-5-5---------5-----
    |-5-x-5-5-x-5-5-x-5-5-5-x-5-5-x-5-x-5-
    |-5-x-3-3-x-5-5-x-3-3-3-x-5-5-x-3-x-5-
    |-3-x-----x-3-3-x-------x-3-3-x---x-3-
    
    Chorus…
  • Intro - D F# B A x's 2
    
    G  A                B               G
           And now that all is said and done,
                                   A
     It's kinda hard to hold my tounge,
                     D                  G
     Cause…
  • E5(i)  022xxx
    F#5   244xxx
    A5   577xxx or x022xx
    B5   799xxx or x244xx
    C#5 x466xx
    D5  x577xx
    E5(ii) x799xx
    
    p.m. = pick hand muting
    
    intro (gtr 1):
    (let ring throughout)
    --0-----------0---------------|
    -----2----------2--3----------|
    ------------------------------|
    ------------------------------|
    ------------------------------|
    ------------------------------|
    
    gtr…
  • CHORDS
    
        E     B      G#      F#      Bb      Eii
    |--------------------------------------------------|
    |--------------------------------------------------|
    |---1-----4----------------------3-------9---------|
    |---2-----4------6-------4-------3-------9---------|
    |---2-----2------6-------4-------1-------7---------|
    |---0------------4-------2-------------------------|
    
    Intro:…
  • Tuning: Standard
    
    e|---------------------------|----|----------|---|-------------------------|
    B|------4-----5-----4-----7--|----|----------|---|-------------------------|
    G|----4-----4-----4-----4----|-11-|--4--6-4--|-8-|--4----------------------|
    D|--4-----4-----4-----4------|-11-|--4--x-x--|-x-|--4----------------------|
    A|---------------------------|-9--|--2--4-2--|-6-|--2----------------------|
    E|---------------------------|----|----------|---|-------------------------|
    Opening…
  • Verse 1: 
    
    You start in the middle and you're doing fine
    
    But there's just too little to keep them satisfied
            A                
    So you try a little harder and you try and try
       F                         G
    Long…
  • Intro (kinda like "Teen Spirit")
    [E-----------------------------
    B-----------------------------
    G--------4---------7----------
    D---4----4----7----7----------
    A---4----2----7----5----------
    E---2---------5---------------]
    
    Progression…
  • intro/verse
    e|------------------------------------------------------------------------|
    b|------------------------------------------------------------------------|
    g|----------55555555----------9/7/555555----------------------------------|
    d|-55555555-55555555-55555555-9/7/555555----------------------------------|
    a|-55555555-33333333-55555555-7/5/333333----------------------------------|
    e|-33333333----------33333333---------------------------------------------|
    
    Pre-chorus
    
    e|------------------------------------------------------------------------|
    b|------------------------------------------------------------------------|
    g|----------5~------------------------------------------------------------|
    d|-7~-5~-7~-5~------------------------------------------------------------|
    a|-7~-5~-7~-3~------------------------------------------------------------|
    e|-5~-3~-5~---------------------------------------------------------------|
    
    Chorus
    
    e|------------------------------------------------------------------------|
    b|------------------------------------------------------------------------|
    g|----------55555555-77777777-55555555------------------------------------|
    d|-55555555-55555555-77777777-55555555------------------------------------|
    a|-55555555-33333333-55555555-33333333------------------------------------|
    e|-33333333---------------------------------------------------------------|
    
    solo
    
    e|------------------------------------------------------------------------|
    b|------------------------------------------------------------------------|
    g|-99999999-55555555-9/11/12/14/12/10/77777777----------------------------|
    d|-99999999-55555555-x-x--x--x--x--x--77777777----------------------------|
    a|-77777777-33333333-7/9/…
  • Intro/Bridge
        A          F#m        E          A 
    e|--5~~--------2~~------------------------|
    B|----------5----------2--5~~--------2~~--|
    G|--------------------------------4-------|
    D|----------------------------------------|
    A|----------------------------------------|
    E|----------------------------------------|
    
    A…
  • Intro : B, Em, G#, Em  2x
    
    Verse:
    B
    I have given up the demons
          Em
    I've made up a hundred reasons
            G#                            Em
    I have turned my back on everything I knew
            B
    I have justified…
  • Intro & Verse
    
    G|-------2-----2---------2-----2---------2-----2----------------|
    D|-0-0-0---0-0---0-4-4-4---4-4---4-2-2-2---2-2---2/11---9---11--| 6
    A|----------------------------------------------------9---9-----| X
    E|--------------------------------------------------------------|…
  • Intro - 
    (Bright lights go down, Bright lights go down...)
    
     - Guitar 1 - 
    
    e|---------------------------------|
    B|---------------------------------|
    G|--------7777777-999999999--------|
    D|--77777-7777777-999999999--------|…
  • Intro
    
    G|-------------------------------------------------------------
    D|-------------------------------------------------------------
    A|-555555------------------------------------------------------
    E|--------5555555-777777-333333--------------------------------
    
    Riff…
  • G:---------------------------5>-----------------------------------------------
    ---------------------
    D:----------------------------------------------------------------------------
    -----------------------
    A:------5>------------3>-------0>-------------3>--0>-------------3>--0>-------
    5>-------
    E:-1>------1>--3>------------------1>--3>-------------1>--3>------------1>----
    ---1>---
    
    G:----------------------------------------------------------------------------
    ---------------------------
    D:----------------------------------------------------------------------------
    --------------------------
    A:------3>------5>-------------3>--0>-------------3>--0>-------------3>--0>---
    -----------3>
    E:-3>------1>-------1>--3>-------------1>--3>-------------1>--3>-------------1
    >--3>-----…
  • Verse 1:
    D                         G                A               G       D
     Try to convince you that you can live without one...     (Woah.....)
    D                      G           A            G       D 
     Hey look…
  • Tuning: Standard
    
    I was suprised that there were no tabs up already for this great song.
    
    Chords used: (all are power chords)
    
                     F     G     A     C
                   e---------------------|…
  • this is the bridge, and it is way easier than it sounds
    
    ----------------------------------------------------------
    -------12-12-------12-12-------12-12-------12-12------9-9-
    -10-10-------10-10-------10-10-------10-10-------10/7-----
    ----------------------------------------------------------
    
    ---------------------------------------------------------
    -----9-9-----9-9-----9-9-----7-7-----7-7-----7-7-----7-7-
    -7-7-----7-7-----7-7-----5-5-----5-5-----5-5-----5-5-----
    ---------------------------------------------------------
    
    ---------------------------------
    -----5-5-----5-5-----5-5-----5-5-
    -3-3-----3-3-----3-3-----3-3-----
    ---------------------------------…
  • Intro : 
    
    e|---------------|
    B|---------------|
    G|---------------|
    D|---------------|      > First time, no "3"
    A|---------------|  4x
    E|-3-5----7-0----|
    
    Then This >
    
    Guitar 1
    e|-------------------------------------------------------------|
    B|-------------------------------------------------------------|
    G|-------------------------------------------------------------|
    D|-------------------------------------------------------------|
    A|-------------------------------------------------------------|
    E|--3-5---7-0-----3-5---5-7-0-----3-5---7-0----3-5---5-7-0-----|
    
    Guitar…
  • Verse 1:
    
    You're calling out
    And no one pays attention
    Looks like everything is still the same
    It's nothing we can change
    
    e|-------------------------|
    B|-------------------------|
    G|---------4-----6-----2---| <-…
  • Chords:
    
    high F    D      C                   Bb
    |-----| |-----| |-----|    |-----|  |-----|    |-----|
    |-----| |-----| |-----|    |-----|  |-----|    |-----|
    |--10-| |--7--| |--5--| or |-----|  |--3--| or |-----|
    |--10-|…
  • Intro: C - riff
     Verse 1:
    E#                     B#                   G    C  G     G    C  G
      You think that I'm invincible, it's gunna pull me down, pull me down
    E#                     B#                   G    C…
  • intro/verse
    G-------8-8------------------|
    D-----66-6-77777777-99999999-|
    A----------------------------|
    E-7777-----------------------|
    Chorus
    G--------898-----|
    D-----------11-9-|
    A----------------|
    E-999/000--------|
    
    G--------898--------------------------|
    D-----------11------------------------|
    A-------------11----------------------|
    E-999/000-----------------------------|
    
    G-------------------------------------|
    D-------------------------------------|
    A-77777777-99999999-77777777-99999999-|
    E-------------------------------------|
    
    G-------------22-4-|
    D--------22-44-----|
    A---22-44----------|
    E-22---------------|
    intrelude
    G------------------------------------|
    D--------------2222--------2222-4444-|
    A-22222222-4444----22222222----------|
    E------------------------------------|
    
    G-----------------|
    D-----------------|
    A-22222/7-22222/7-|
    E-----------------|
    solo
    G-------8--8-|
    D-----66-6---|
    A------------|
    E-7777-------|
    Ending
    E-999/0*
    
    /=…
Наверх