Аккорды «Factory 81»

Factory 81
Образовались в 1997 в городе Детройт. В 1999 выпустили первый альбом - Mankind, замешанный на нью метале с долей рэпкора, отзывы критиков о котором были очень и очень позитивными. В 2000 этот альбом переиздаётся с двумя бонусами: ремиксом от Райса Фалбера (Fear Factory, Machine Head) на одну из песен и скрытым треком. В этом же году Republic/Universal Records выпускает сборник Take a Bite Outta Rhyme, куда входит кавер ребят на песню Cypress Hill. В 2001 группа в силу расходждения во взглядах на… Читать полностью... Образовались в 1997 в городе Детройт. В 1999 выпустили первый альбом - Mankind, замешанный на нью метале с долей рэпкора, отзывы критиков о котором были очень и очень позитивными. В 2000 этот альбом переиздаётся с двумя бонусами: ремиксом от Райса Фалбера (Fear Factory, Machine Head) на одну из песен и скрытым треком. В этом же году Republic/Universal Records выпускает сборник Take a Bite Outta Rhyme, куда входит кавер ребят на песню Cypress Hill. В 2001 группа в силу расходждения во взглядах на творчество разрывает контракт с прежним лэйблом и приступает к поиску нового, готового реализовать все творческие желания коллектива. К 2003 материала для нового альбома становится предостаточно, однако подходящий лэйбл всё ещё не найден. Мелькнула надежда на то, что им может оказаться Midwest Studios, но и он не оправдал творческих амбиций группы. Руководствуясь принципом всё или ничего, в этом же году команда распадается. Состав: Nate Wallace - вокал Bill Schultz - гитара Kevin Lewis - бас Andrew Cyrulnik - ударные Скрыть...
Популярные аккорды Factory 81:
алфавиту | просмотрам | случайно
  • Tuning: C,G,C,G,B,E
    
    ;Intro
    |------------------------|------------------------------------|
    |------------------------|------------------------------------|
    |------------------------|------------------------------------|…
  • TUNING: Drop-C (C, G, C, F, A, D)
    
         Riff 1:
        D|---|
        A|---|
        F|---| Volumn swell 
        C|-0-|
        G|-0-|
        C|-0-|
    
         Riff 2:
        D|--------------------------------------------------|
        A|--------------------------------------------------|…
  • You need to be Drop tuned to C G C F A D
    
    Riff 1:
    C-9---5/77---5/77---7---5/7-7-5-3--
    G-7---3/55---3/55---9---3/5-5-3-1--
    C---0------0----------0------------
    
    Riff 2:
    D-----------------------8/9--------------
    A-5-5-5/6-7-3-5---6/5-5-----7-3-5---3-5--
    F---------------5-----------------5------
    
    Riff…
  • =:LET NOTE RING 
    h: this hammering is done with your finger(no picking) 
    P.M.: Palm Mute 
    : Harmonic 
    p: Pull Off 
    /:Slide 
    THERE ARE NO DOUBLE DIGIT FRETS PLAYED IN THIS SONG 
    
    INTRO W/PHASER OR CHORUS/FLANGE PEDAL AND…
  • TUNING: Drop D and down 1 step (C G C F A D)
    
         Riff 1: (intro)
        D|-------------------------|
        A|-------------------------|
        F|-------------------------|
        C|-------------------------|
        G|-------------------------|…
  • Tuning: C G C F A D
    
    Riff 1:
    C--5/7----5/7----5/7----5/7--9--5/7-----
    G--3/5----3/5----3/5----3/5--7--3/5-----
    C------00-----00-----00-------------00--
    pm     ..     ..     ..             ..
    
    Riff 2:
    C--5/7------5/7------5/7------555--777
    G--3/5------3/5------3/5------333--555
    C------0000-----0000-----0000----------
    pm…
  • Tuning: C G C F A D
    
    Intro:
    D-------------------------------------------------------
    A-------------------------------------------------------
    F-------------------------------------------------------
    C--9999999-1212-1111-7777777-9999999-1212-1111-7777777--…
  • Riff I                 Intro   4x
    |----------------------------------------------------------------------------
    |----------------------------------------------------------------------------
    |----------------------------------------------------------------------------
    |----------------------------------------------------------------------------
    |------------------------------------------------------------------000-8-----
    |-12p0-0-0-12p0-0-13p0-12p0-0-12p0-0-13p0-12p0-0-12p0-0-0-130-12p0-000-8-----…
  • Tuning(low to high):C,G,C,F,A,D 
    
    : Harmonic 
    there are no double digit frets in this song. 
    
    INTRO/BRIDGE W/SLIGHT DISTORTION AND SOME TYPE OIF EFFECT 
    D|--------------------------------------------------| 
    A|--------------------------------------------------|…
  • Tuning: C G C F A D
    
    Intro:
    D----------
    A----------
    F----------
    C----------
    G-------2--
    C-2-323-2--
    
    Riff 1:
    D--------------------------------------------------
    A--------------------------------------------------
    F--------------------------------------------------
    C-------------------------------------------5555---…
  • Tuning: C G C F A D
    
    Intro:
    D--------
    A--------
    F--------
    C--------
    G-0-0-0-- (let each ring)
    C-0-0-0--
    
    Riff 1:
    D--------
    A--------
    F--------
    C-----7^^ (after the pause, it does several bend variations other than 7)
    G---0----
    C-3-0----
    
    Riff…
  • Tuning: C G C F A D
    
    Riff 1:
    D------------------------------------19-21-22-21-- (2nd time do 5-6-7-6, rest are 19etc)
    A-------------------------------------------------
    F-------------------------------------------------
    C-------4-------------------4---------------------
    G-------2-------------------2---------------------
    C-00000---0000-3-2-1--00000---00000---------------
    pm.....…
  • Tuning: C,A,C,G,B,E
    
    ;Intro
    |-------------------------------------------------------------|
    |-------------------------------------------------------------|
    |-------------------------------------------------------------|
    |-1-------0-0-0-(5)----0-0-0-1h3-1h3--------------------------|
    |-1-------0-0-0----(5)-0-0-0-1h3-1h3--------------------------|
    |-1-------0-0-0--------0-0-0-1h3-1h3--------------------------|
    ring…
  • Tuning: C G C F A D
    
    Riff 1:
    D-----------------------
    A-----------------------
    F-------------333-------
    C-----------------------
    G-0---1-0-0-------1-0-0-
    C-0---1-0-0-------1-0-0-
    
    Riff 2:
    D------------------------------------------------------------
    A------------------------------------------------------------
    F------------------------------------------------------------
    C--12-10-12-10-12-11-12--12-10-12-10-12-11-12-1414-17-15-17--…
  • For this song (and all their songs) you need to be dropped to this tuning:
    
    C G C G B E (You don't need to drop the other 3 for this one)
    
    Riff 1
    E----------------------------
    B----------------------------
    G----------------------------
    C----5/3----5/3----5/3--3/55-
    G-00-3/1-00-3/1-00-3/1--1/33-
    C-00-----00-----00-----------
    Pm..…
  • Tuning: C G C F A D
    
    Riff 1:
    D---------------------------
    A---------------------------
    F---------------------------
    C-4/3-4/3-4/3-4/3-4/3-44-5--
    G-2/1-2/1-2/1-2/1-2/1-22-3--
    C---------------------------
    
    Riff 2:
    D--------------------------------------------------
    A--------------------------------------------------
    F--------------------------------------------------
    C-3---------4/3-----------5/3-----------4/3-444444-
    G-1---------2/1-----------3/1-----------2/1-222222-
    C---0000000------00000000-----000000000------------
    pm…
  • Tuning: C G C F A D
    
    Riff 1:
    D-----------------------------------------------
    A-----------------------------------------------
    F-----------------------------------------------
    C-7777-8/7-7777-8/7-7777-8/7-77777--------------
    G-5555-6/5-5555-6/5-5555-6/5-55555-6-5-6-5-3-1--
    C----------------------------------6-5-6-5-3-1--
    
    Riff…
  • drop d, down 1 whole step
    
    intro - play 4x
    clean, with chorus
    D---------------------|--------------------------|
    A---------------------|--------------------------|
    F---------------------|--------------------------|
    C---------------------|---------------3-3-3------|
    G---5-5-5-5--3h5h6p5--|---3-3-3-3--0---------5-5-|
    C---------------------|--------------------------|…
  • Tuning: C G C F A D
    
    Riff 1: (played throughout almost the entire song, clean effect)
    D--------------------------------------------------------------------
    A--------------------------------------------------------------------
    F--------5----------5----------5----------5----------5----------5----
    C-77---7---7-77---7---7-77---7---7-88---7---7-88---7---7-88---7---7--
    G----5----------5----------5----------5----------5----------5--------
    C--------------------------------------------------------------------
    
    Riff…
Наверх