Аккорды «Fear Factory»

Fear Factory
Fear Factory - industrial/death metal-группа, образовалась в 1989 году и выпустила восемь полноформатных альбомов, несколько синглов и ремиксов. В течение своей карьеры впервые сочетали такие стили, как death metal, groove metal, thrash metal и industrial metal. Получающийся звук оказался чрезвычайно влиятельным на металлической сцене с середины 90-х и по сей день. В музыкальном мире 90-е годы проходят под флагом смешения самых различных стилей, порой даже, казалось бы, совершенно несовместимых.… Читать полностью... Fear Factory - industrial/death metal-группа, образовалась в 1989 году и выпустила восемь полноформатных альбомов, несколько синглов и ремиксов. В течение своей карьеры впервые сочетали такие стили, как death metal, groove metal, thrash metal и industrial metal. Получающийся звук оказался чрезвычайно влиятельным на металлической сцене с середины 90-х и по сей день. В музыкальном мире 90-е годы проходят под флагом смешения самых различных стилей, порой даже, казалось бы, совершенно несовместимых. Какие только альянсы самых разнообразных музыкальных направлений не обрушиваются на головы несчастных слушателей! Fear Factory - группа, которая в своем творчестве также не замыкается в рамках одного стиля, а активно рыщет по территориям самых, казалось бы, несовместимых музыкальных направлений. Группа была сформирована в Лос-Анджелесе в 1990 году вокалистом Бартоном Бэллом (Burton C. Bell), прежде игравшим в Hate Face, барабанщиком Рэймондом Херрера (Raymond Herrera), и гитаристом Дино Казерес (Dino Cazares), до этого игравшем в Douche Lord. Первый альбом группы вышел в 1992 году и назвался Soul Of New Machine, в его записи приняли также участие бас-гитарист Эндрю Шивес (Andrew Shives). Но вскоре музыканты группы справедливо решили, что не дэтом единым жив человек, и направили свои усилия в творческие изыскания на новых просторах. Первым подвернувшимся простором оказался индастриал, и Fear Factory начали активно употреблять в своих произведениях самые совершенные электронные приспособления. А результатом этих творческих поисков оказался альбом “Fear Is The Mindkiller”, содержащий в себе ремиксы с предыдущего альбома “Soul Of A New Machine”, который, надо признать, был все ж таки дэтовым, нежели дэт-металлическим с элементами индастриала. Данный EP оказался настолько удачным с творческой стороны, что музыканты решили развивать эту тему самым решительным образом, благо к тому времени многие металлические группы стали использовать самые разнообразные индустриальные веяния. К слову сказать, у Fear Factory это все-таки получилось гораздо лучше, нежели у их коллег. Музыканты из Fear Factory настолько тонко и органично соединили эти два вышеупомянутых жанра, что их вкусу остается только позавидовать, настолько удачным получился продукт их совместного творчества. Каков же этот альбом по стилю? Еще один клон Ministry? Не совсем. Fear Factory скорее играют death metal/grindcore (хотя они и имеют клавишника в составе), и этот диск - или результат цинических коммерческих манипуляций их лейбла, или желание самой группы окунуться в модный нынче жанр с трэш-гитарами и синтезаторами с сэмплами. Другими словами, конечным результатом было то, что пять треков с альбома Soul Of A New Machine попали в лапы к Bill Leeb и Rhys Fulber (из Front Line Assembly, Noise Unit, Intermix и др.), чтобы преобразиться. Законченный продукт, надо сказать, не совсем уж плох. Подход, который приняли Leeb и Fulber - несколько неожиданный, с хаус-битом, добавленным во все треки, из-за чего они звучат более как релизы Intermix, чем как их собственный гитарный материал. Не слышав альбома, на котором впервые появились оригинальные версии этих песен, сложно сравнивать ремиксы и оригиналы, но Roadrunner, однако, включила альбомную версию песни "Self Immolation", которая здесь ремикширована дважды, и это дает понять слушателю, что было "до" и что получилось "после". Если подход, примененный к "Self Immolation", типичен для всех остальных треков, то Leeb и Fulber показали высокий уровень уважения оригинального материала. Большинство изменений заключается в переаранжировке, манипулировании сэмплами более, чем в глобальном изменении звучания. Хотя и сделав изменения, они постарались оставить атмосферу треков, с небольшим дополнением, заключающемся в бите. В 1994-м Шивес был выгнан из группы, а на его месте оказался Кристиан Олд Волберс. Совершив хороший задел на “Fear Is The Mindkiller”, наши герои приступили к записи следующего альбома под впечатляющим и ласкающим слух названием “Demanufacture”. Альбом был весьма доброжелательно встречен и публикой и критиками. Альбом действительно производил впечатление: тяжесть и агрессия вкупе с электронными достижениями звучали на редкость свежо и достаточно необычно, чтобы выделяться из многочисленных работ сотоварищей по цеху. Органичная смесь индастриала и дэт метала удалась группе как никому другому. Еще более повысив технический уровень исполнения и звукорежиссуры, Fear Factory поднялись на недосягаемую для большинства аналогичных групп высоту. Несмотря на казалось бы повышенную степень серьезности их музыки, имидж и аттитюд группы базируется на фантастической комиксовой, мультипликационной и кинематографической культуре. Все что связано с Чужими, Терминатором или героями Стар-Трэка всячески вплетается участниками коллектива в тексты , сценический антураж и возникает во время фотосессий. В 1996 году Рейнора Диего сменил Стив Тушар. И несмотря на то что члены коллектива занялись побочными проектами, в 1997 году группа решила закрепить успех и выпустила альбом “Remanufacture”. Собственно, это не совсем новое творение, так как альбом практически сделан из ремиксов предыдущего релиза “Dehumanufacture”, но тем не менее это совершенно новый виток в развитии группы. “Remanufacture (Cloning Technology)” действительно сделан на основе ремиксов, - рассказывает гитарист Дино Казарес. – Группа ориентировалась на свой предыдущий альбом плюс вещи Technohead, DJ Dano, Junkie XL и Front Line Assembly`s Rhys Fulber, мы их переработали и дали новые названия”. “Собственно, когда мы писали эти песни, то уже предполагали в дальнейшем сделать их ремиксы. Мы специально записывали их таким образом, чтобы затем можно было перемикшировать в цифровом формате” – замечает Бёртон. Demanufacture — их предыдущий студийный альбом, должен был представлять собой синтез электроники и металла, но их продюсер в то время не совсем правильно понимал и воспринимал инновативные взгляды парней из FF. Это явилось причиной для приглашения одного из культ–идолов индастриала конца 80–х — середины 90–х RHYS FULBER (ex–FRONT LINE ASSEMBLEY) для ремикширования альбома "Remanufacture" — своего рода экспериментального "десанта" брутального квартета на электроплантации. Помимо харизматического индустриального "боевика" Риса Фулбера для подготовки "броска" были задействованы вспомогательные силы "быстрого реагирования" в лице андерграундных DJS: JUNKIE XL, недавно "взорвавшего" европейскую extreme–dance–сцену своим "ракетным" стингер–дебютом; Dj Dano — одного из самых загадочных hardcore–gabber–фриков Голландии, который комбинирует в своих миксах старые нидерландские гимны с "жирными" hardcore–битами; KINGSIZE — известнейший Dj Underground–сцены Нью–Йорка. Опыты FF c "Cloning Technology" соответствовали духу времени, концепция альбома заключалась в слове "technologie", электроиндустриальные версии имели больший коммерческий успех, чем регулярные альбомы FF. Именно это творение, окончательно закрепило за группой статус суперзвезд. Вокалист Бертон Си Белл на сцене полностью приковывал внимание публики, как дрессировщик змей приковывает к себе внимание этих пресмыкающихся. Группа была приглашена играть на самых престижных фестивалях, в том числе и на первом “Ozzfest”-e. Казалось бы, что еще нужно для счастья? Очень часто в среде музыкальных журналистов говорят, что третий альбом обычно показывает, на что способна группа в пору "зрелости" — идти вперед или закатываться "в никуда". Что касается FF, то они сделали значительный прыжок в своем развитии за следующие три года. Сотрудничество с RHYS FULBER, начавшееся еще с первого альбома ремиксов "Fear is the Mindkiller", принесло свои "закономерные плоды", он явился одним из продюсеров–конструкторов последней бомбы FF — "Obsolete". Burton C.Bell (вокал): "Это альбом, который мы пробовали записать все эти восемь лет, и с ним, наконец, удалось дефинировать FEAR FACTORY как группу". На сей раз музыканты решили не ограничиваться только развитием музыкальных идей, они принялись за развитие концептуальное, ибо новый альбом стал именно таким. Музыканты продолжают исследовать сражение человека против машины - органическое против цифрового. Фронтмен группы - Бартон Белл (Burton C. Bell) это объясняет так: "Концепция этого альбома означает, что человек атрофировался. Идея - человек все еще против машины - человек против системы ... человек против правительственной машины. Obsolete - часть концепции Fear Factory - мы дошли до такого момента в истории, где человек полностью атрофировался. Человек создал все эти машины, чтобы сделать его жизнь более легкой, но в конечном счете это сделало его атрофированным и беспомощным. Машины, которые он создавал, теперь уничтожают его. Человек - не главный гражданин на Земле." Далее "Fear factory" записали несколько саундтреков к различным фильмам, а также приняли участие в туре 1999 года "Ozzfest". Диск 2001 года "Digimortal" попал в штатовский Топ 40. На этом альбоме практически каждая песня являлась хитом. В текстах звучала все та же тема страшной борьба человека и машин, начатая еще на "Obsolete". В начале 2002 года "Fear factory" выпустили биографический DVD "Digital Connectivity - The Evolution Of Fear Factory". Казалось бы дела в группе шли замечательно, однако весной 2002-го вокалист Бартон заявил о своем намерении уйти из команды: "В субботу, второго марта 2002 года я встретился со всеми членами Fear Factory. На этой встрече я рассказал о своих личных ощущениях касающихся нынешней ситуации в группе. Довольно долгое время меня не устраивали как взаимоотношения в группе, так и наши финансовые дела, и это ограничивало меня в творчестве. После долгих размышлений я решил, что лучшим возможным вариантом, который бы меня устроил, будет уход из группы.Это не капризный уход в неизвестное, это то о чем я долго думал. Я держал свои чувства и мысли внутри, пока не стало очевидным, что эти отношения бесполезны для меня как для артиста. Это решение было неожиданным для большинства моих знакомых. Мы пережили вместе много хорошего, и так же много плохого за эти 12 лет, но я ни о чем не жалею. Я искал в себе всевозможные варианты, решаясь на это, и я чувствую, что для меня и моего роста как артиста, продвижение вперед - лучшее возможное решение. Я хотел бы пожелать ребятам удачи во всех их будущих начинаниях. Я буду скучать по фанатам и хочу поблагодарить их за поддержку в течение всех этих лет." Оставшиеся музыканты занялись побочными проектами - Raymond Herrera и Christian Olde Wolbers начали работу в новой группе - Kush вместе со Stef'ом из Deftones и B-Real из Cypress Hill. Однако группа решила записать-таки свой заключительный альбом, дабы выполнить контрактные обязательства перед Roadrunner Records. Но так как Raymond Herrera (ударные), Burton C. Bell (вокал) и Christian Olde Wolbers (бас) окончательно разругались с Dino Cazares'ом (гитара), то его участие в записи было невозможно. Поэтому все партии гитар исполнял Christian, который, кстати, до присоединения к Fear Factory в 1994 году, играл на гитаре в разных бельгийских группах. Но и тут оказалось что не всё потеряно, группа всё-таки не распалась, хотя и Дино Казарес в неё не вернулся. 20 апреля 2004 года вышел новый альбом Archetype уже с изменённым составом - Christian утвердился в качестве гитариста, а на бас встал Byron Stroud. В 2005 году группа выпускает очередной альбом Transgression, в котором отсутствие в группе одного из ее основателей - Дино Казареса - невозможно не заметить. Несмотря на то, что альбом звучит по-настоящему "фирфэкторно", он является, по сути, лишь повторением уже пройденного материала. С 2006 года у группы наступает затишье, Дино клянется никогда больше не иметь дела с Fear Factory, Бертон занимается сторонними проектами, а Кристиан и Реймонд создают свою группу - Arkaea. По слухам, материал для Arkaea был записан Кристианом и Реймондом для нового альбома ФФ, но Бертон отказался работать над материалом. Чтобы добро не пропадало, Кристиан и Реймонд пригласили, дорабатывать материал, вокалиста из Threat Signal. В 2009 году группа официально объявляет о своем возвращении. Правда, в новом составе. В группу возвращается, вместо Christian'a Wolbers'a - Dino Cazares (что, для многих, было неожиданностью), а место Raymond'a Hererra занимает Gene Hoglan (ex-Death, ex-Testament, Dethklok, Strapping Young Lad). Также в составе остается Byron Stroud, который играл на двух последних альбомах. И естественно, место вокалиста занимает Burton C. Bell. Летом 2009 года группа объявляет о записи нового альбома под названием "Mechanize". Новый альбом вышел 5 Февраля в Европе и 9 Февраля в США. Предварительно, в октябре, в сети официально появляется одна из новых песен - "Powershifter". В отношении музыкального направления альбома "Mechanize" Белл сказал следующее: "На нем есть грубая агрессия 'Soul Of A New Machine' (1992), но ему присуща и зрелость 'Obsolete' (1998). Когда я говорю "зрелость", я имею в виду навыки композиции, которых у нас не было при записи 'Soul Of A New Machine', но которые у нас появились при работе над 'Obsolete'. Со-продюсерами диска стали участники группы и Рис Фулбер (Rhys Fulber, FRONT LINE ASSEMBLY, PARADISE LOST), а микшированием занимался Грег Рили (Greg Reely, PARADISE LOST, FRONT LINE ASSEMBLY, SKINNY PUPPY). Также группа открывает новый гастрольный тур по миру "Fear Campaign". 24-го апреля 2010 г. группа впервые выступила в Москве и России в целом. Повод для приезда был более, чем весомый - в качестве саппорт-группы мирового турне Metallica. 29 Июня 2010 прошёл первый сольный концерт Fear Factory в Москве. В 2012 году в составе группы произошли изменения, сменился барабанщик и басист. Новым басистом стал Мэтт ДеВриз, а барабанщиком Майк Хеллер. В этом же году в июне выходит новый студийный альбом коллектива - "The Industrialist". В музыкальном плане, новая работа является прямым наследником "Mechanize", однако, это именно шаг вперёд. Скрыть...
Популярные аккорды Fear Factory:
алфавиту | просмотрам | случайно
  • Riff A:
    G|-------------------------------------------------------
    D|-------------------------------------------------------
    A|-------------------------------------------------------
    E|---------------222---------------222-4-444-44-44-4-222-
    B|-5-555-55-55-5-----3-333-33-33-3-----------------------
    
    G|--------------------|
    D|--------------------|
    A|--------------------|
    E|6666-6666-6666-6666-|
    B|--------------------|
    
    Riff…
  • Intro Riff
    E-----------------0---------------------
    A--2----4----5-----------2----4----0----
    
    Link
    E------------------------
    A---0--00--02--22--2---and then do...
    
    Intro Extension
    E-----------------0------------------------
    A--2----4----5---------2----4----0----2----
    
    Verse
    E----------------------------------
    A--2--2--4-44--4--2--2--4-44-4-----A…
  • Dropp D tunning.
    
    Bass Figure 1
    -------------
    
    G--------------      G-------------
    D--------------      D-------------
    A-5-4---0-000-- (3x) A-5-4---0-0-0-
    D-----5--------      D-----5-------
    
    Bass Figure 2
    -------------
    
    G---------
    D---------
    A-----2---
    D-4-5---5-
    
    Bass…
  • 7 string tuned down a whole step (A,D,G,C,F,A,D)
    or 6 string tuned down 3 1/2 steps (A,D,G,C,F,A)
    
    Not quite complete. Still can't get the chorus riff...
    
    --------------------------------------------|----------|-------|-------|------
    --------------------------------------------|----------|-------|-------|------
    --------------------------------------------|----------|-------|-------|------
    --------------------------------------------|-5-7-8----|--4----|--4----|------
    --------------------------------------------|-3-5-6----|--4----|--4----|------
    -334-343-33334-343-33334-343-33334-34343434-|----------|--2----|--2----|------…
  • 7-string guitar (of course) tuned down 1 whole step
    
    INTRO
    
    D|-------------------------------------------------
    A|-------------------------------------------------
    F|-------------------------------------------------
    C|-------------------------------------------------
    G|-------------------------------------------------
    D|-------------------------------------------------
    A|--1-p0-1-p0-1-p0-1-p0-1-p0-1-p0-1-p0-1-----------
    
    
    D|------------------------------------
    A|------------------------------------
    F|------------------------------------
    C|------------------------------------
    G|--2-3-3-3--2-3-3-3------------------
    D|--2-3-3-3--2-3-3-3------------------
    A|--0-1-1-1--0-1-1-1--------play…
  • -|--------|------|--------|------|--------|-------|--------|------|-----------
    -|--------|------|--------|------|--------|-------|--------|------|-----------
    -|--------|------|--------|------|--------|-------|--------|------|-----------
    -|--------|------|--------|------|--------|-------|--------|------|-----------
    -|--------|------|--------|------|--------|-------|--------|------|-----------
    -|-333353-|------|-333353-|------|-333353-|-------|-333353-|------|-----------…
  • TUNING: Drop D(1:E 2:B 3:G 4:D 5:A 6:D)
    
    Starts with about 5 seconds of effects
    
    Play The Following 4 times, with a pause after each one
    |-------------------|
    |-------------------|
    |-------------------|
    |-------------------|
    |-1-1-1-1-1-1-1-1-1-|
    |-1-1-1-1-1-1-1-1-1-|…
  • Tuning goes B, E, A, D, F#, B(in otherwords everystring is 2.5 steps down) 
    
    * Good Luck, some of these rhythms are a bitch(I used huge spaces so you can
      get the feel of some of the rhythms)
    
          Opening Riff(This is…
  • Standard 6 String tuned down perfect 4th (B, E, A, D, F#, B)
    
    
    LEGEND:
            
            *    -- palm-mute 
            H    -- hammer-on
            
    
    Riff A (all notes palm-muted)
    B |--------------------------------------------------------|
    F#|--------------------------------------------------------|
    D…
  • 7 string arranged for 6 string
    
       Tune Low E to A
       Tune A to D
       Tune D to G
       Tune G to F
       Tune B to A
       Tune High E to D
    
    
       Intro and Chorus
       ------------------------------------------------------------------…
  • 7 String Guitar Or Six String tuned down 2 1/2 steps
    (B,E,A,D,G,B)
    
    -|----------------------------------|--------------------------------------|--
    -|----------------------------------|--------------------------------------|--
    -|----------------------------------|--------------------------------------|--
    -|----------------------------------|--------------------------------------|--
    -|----------------------------------|--------------------------------------|--
    -|-22242--22242--22242--24442-24442-|-22242-4--22242-2-22242-4-24442-24442-|--…
  • Intro: Play this with Natural Harmonics, HALFWAY up the 4th fret. 
    Work your way up the strings, sort of Arpeggiating them.
    
    B|-----------|
    G|-----------|
    D|-----------| Song Time: Start-0:22
    A|-----------|
    E|-----------|
    A|-----------|
    
    Pre-Chorus
    B|-----------------------|
    G|-----------------------|
    D|-----------------------|Play…
  • 5-string bass
     
     VERSE (Guitar riff):
     
     G|-------------------------------|
     D|-------------------------------|
     A|-------------------------------|
     E|-------------------------------|
     B|--4-3--4-3--4-3--4-3--4--4--4--|…
  • Tune all strings down a perfect fourth (B, E, A, D, F#, B)
    
    
    Riff A (slight palm mute here very slight)
    
    |-------------------------------------------------------------|
    |-------------------------------------------------------------|
    |-------------------------------------------------------------|
    |--2-2-2-2-3--2-2-3-3-2---2-2-2-2-3--2-2-3-3-2----------------|
    |--2-2-2-2-3--2-2-3-3-2---2-2-2-2-3--2-2-3-3-2----------------|
    |--0-0-0-0-1--0-0-1-1-0---0-0-0-0-1--0-0-1-1-0(3333333333)----|…
  • Verse Riff
    |--------------------------------------------------------------------------|
    |--------------------------------------------------------------------------|
    |--------------------------------------------------------------------------|
    |-------------------------------------2/5-3--------------------------------|
    |-3---------6--------------3-----6----2/3-1----3-------6-------3-----------|
    |-1--0---0--4--0--0--0--0--1--0--4-------------1-0--0--4-0--0--1-----------|…
  • This song is in Drop D tuning - for me anyways...
    
    Intro/chorus
    the strumming, listen to the song
    D I--7-/-5--/3--/5----------I
      I--7-/-5--/3--/5----------I
      I--7-/-5--/3--/5----------I
      I-------------------------I…
  • Tuning:E standard 
    
    e|----------------------------------------------------------------
    B|----------------------------------------------------------------
    G|----------------------------------------------------------------
    D|-------------------------------8--------------------------------
    A|-------------------------------8--------------------------------
    E|-0-0-0--6p0--0--6p0-0-0-0-0-0--6--------------------------------
    
    e|----------------------------------------------------------------
    B|----------------------------------------------------------------
    G|----------------------------------------------------------------
    D|--8--8-8-8---7777777--------------------------------------------
    A|--8--8-8-8---7777777--------------------------------------------
    E|--6--6-6-6---5555555--------------------------------------------
    
    e|----------------------------------------------------------------
    B|----------------------------------------------------------------
    G|----------------------------------------------------------------
    D|--2--2-2-2---5555555--------------------------------------------
    A|--2--2-2-2---5555555--------------------------------------------
    E|--0--0-0-0---3333333--------------------------------------------
    
    this…
  • TUNING:  7 STRING GUITAR IN STANDARD-BEADGBE
    
    
    CHORUS
    		     X3
    E|-----------------------|--------------|
    B|-----------------------|--------------|
    G|-----------------------|--------------|
    D|-----------------------|--------------|…
  • Intro
    G|-----|
    D|-----|
    A|-----|
    E|-----|
    B|-12-|
    
    Chorus
    G|-------------|
    D|-------------|
    A|-------------|
    E|-------------|
    B|-0-0-0-0-0-1-|
    
    Verse
    G|---------------------|
    D|---------------------|
    A|---------------------|
    E|---------------------|
    B|-5-5-55-555555-3-3-3-|
    
    Pre-Chorus
    G|--------------------------------------|
    D|--------------------------------------|
    A|--------------------------------------|
    E|--------------------------------------|
    B|-3--3-4--4-5--5-6--6-3--3-4--4-5--5-6-|…
  • Tune all strings down a perfect fourth (B, E, A, D, F#, B)
    
    * means mute
    
    I've transcribed Big God and I think it's pretty close. Forget Raped Souls. It gets
    too fast and the guitar becomes inaudible over Ray's cymbals crashing.…
  • Tuning goes B, E, A, D, F#, B(in otherwords everystring is 2.5 steps down)
    
    Such a simple song, yet I had so much trouble figuring it out. 
     
     Scumgrief Riff                *
    |----------------------------|----------------------------|
    |----------------------------|----------0-----------------|
    |----------------------------|----------0-----------------|
    |------5-5-------------------|------5-5-0-----------------|
    |-2----3-2-5-----------------|-2----3-2-2-----------------|
    |-0--------3----33335555-2-3-|-0--------3----33335555-2-3-|…
  • Dropped-D tuning (D, A, D, G, B, E)
    
    Intro with studio sounds, drums, bass, and then guitar comes in doubled 
    
    Riff A:
    
    |-----------------------------------------------------|
    |-----------------------------------------------------|
    |-----------------------------------------------------|
    |-----------------------------------------------------|
    |----------6-----------6-6-----------6-----------6-6--|
    |--0-0---0-6---0-0---0-6-6---0-0---0-6---0-0---0-6-6--|…
  • Tuning: A E A D G B E
    
    
    Intro:
    E|-------------|
    B|-------------|
    G|-------------|
    D|-------------| X5
    A|-------------|
    E|-------------|
    A|--5555554~~~~|
    
    Then last note straight into...
    E|------------------------|
    B|------------------------|
    G|------------------------|
    D|------------------------|
    A|--4-5-4-5-4-5-4-5p4-----|
    E|--4-5-4-5-4-5-4-5p4-----|
    A|--4-5-4-5-4-5-4-5p455555|
    
    Then…
  • Tune your guitar down 2 1/2 steps (low to high-B E A D Gb B)
    
    Riff 1
    ------
    1 |----------------------------------|----------------------------------|
        
    2 |----------------------------------|----------------------------------|…
  • A:----------------------------------4~let ring for a while
       E:----------------------------------4~
       B:1111222211114444333331111222211111
    pm:  ..................................
    
    Repeat this as many times as needed but…
  • Tuning-B,E,A,D,F#,B
    
    Intro-(let ring)
    |-----------------------------------------------------|
    |-----------------------------------------------------|
    |-----------------------------------------------------|
    |--10-------------------------------------------------|
    |--10-------------------------------------------------|
    |--8--------------------------------------------------|
    
    Riff…
  • ACRES OF SKIN
    
    7-STRING TUNED DOWN DROPPED A (LOW TO HIGH) -> A E A D G B E
    6-STRING TUNED DOWN 2.5 STEP, DROPPED A (LOW TO HIGH) -> A E A D G B
    
    NH= natural harmonic
    * = palm mute
    
    
    
    RIFF A
    E|-----------------------------|
    B|-----------------------------|
    G|-----------------------------|
    D|-----------------------------|
    A|-----------------------------|
    E|--6--5--4-4-4----------------|
    A|--6--5--4-4-4---x--x--x-x-x--|
    
    RIFF…
  • Tuning:  7-string guitar on a 6-string with last string  
    remaining the same (B E A D G E). 
     
      Riff A 
    -|--------------------------------------------------------|------------------- 
    -|--------------------------------------------------------|-------------------…
  • |------------------------------------------------------------------------|
    |------------------------------------------------------------------------|
    |-5-5--5-5-5-7---3-3--3-3-3-5--------------------------------------------|
    |-5-5--5-5-5-7---3-3--3-3-3-5--------------------------------------------|…
  • Tuned down to B (BEAD) or use a 5 string
    this song is one of my favorite songs to play on bass...
    it has a lot of tempo change and is a little hard to 
    play at first...but is a great song after that
    
    Intro
    D|----------------------
    A|----------------------
    E|----------------------
    B|--0-3-1-1-3-0-3-4-3-1-(nice…
  • Tune down 1/2 step
    w/drums and funky keyboard thing          play 2 times
    HEAVY P.M.................................|  ..............
    |------------------------------------------------------------------|   
    |------------------------------------------------------------------|…
  • Tune all strings down a perfect fourth (B, E, A, D, F#, B)
    
     B|----------------|
    F#|----------------|
     D|----------------|
     A|---6-----6--5---|
     E|------7---------|
     B|----------------|
    
    The riff is rather simple. the first…
Наверх