Аккорды «Feedback»

Популярные аккорды Feedback:
алфавиту | просмотрам | случайно
  • Bass Intro:
    G------------------------------------------
    D---11----11----7---7----------------------
    A-9----99-----5---55----7---7----99----99--
    E---------------------5---55--77----77-----
    
    Verse
    G------------------------------------------
    D------------------------------------------
    A-99999999-55555555------------------------
    E------------------55555555-77777777-------
    
    Chorus
    G--------------------------------------------------------------------
    D--------------------------------------------------------------------
    A-9999999999999999-555555555555555-----------------------------------
    E---------------------------------5555555555555555-777777777777777---
    
    Bridge
    G------------------------------------------
    D---11--11-11---7--7-7---------------------
    A-99--99--9---55-55-5----7--7-7---9--9-9---
    E----------------------55-55-5--77-77-7----…
  • Main riff
    G---------------
    D---------------
    A---------------
    D-7777-44-22----
    
    secondary riff
    G-----------------------------------------
    D-----------------------------------------
    A-00000000-22222222-55555555-55-44-22-00--
    D-----------------------------------------
    
    breakdown
    G-------------------
    D-----------4h6p4---
    A----------4-----6--
    D-77-44-2-4---------…
  • intro
    (acousic)                                    E
    -0--13(x2)0---03-01--0310-------------31-------------------------|
    --------------------------03-01--0310---1p3----------------------|
    ----------------------------------------------1------------------|
    ----------------------------------------------2------------------|
    ----------------------------------------------2------------------|
    -0--00(x2)0------------------------------------------------------|
    		verse…
  • E|-3-|
    B|-3-|
    G|-3-|
    
    Intro (palm mute until the final D)
    Em   C    D   Em    C   D   G    D  Dvar (now change quickly between D and Dvar
    strumming once per beat)
    
    Verse
    Em              C              D
    A lonely…
  • verse
    G------------------------------------
    D------------------------------------
    A------------------------------------
    D-00----00----00--00----00----3-5-3--
    
    chorus
    G------------------------------------
    D------------------------530---------
    A--------------------350-------------
    D-3333333-3h5-55-0000----------------
    thats…
  • Am
    day slowly turns to night
    Em
    dim are the street lights
    Am
    I used to know this town
    Em
    but now its upside down
    
    CHOURS
    Am
    What a place to live
    Em
    Death is in the air
    Am
    But no-one seems to care
    
    Am
    Slowly i fall to my…
  • Drop D
    
    Gtr 1 - Acoustic
    Gtr 2 - Clean Electric
    
    INTRO
      Gtr 1             Gtr 2    Gtr 1           Gtr 2
    |--------1-----3------------------3---------3-3---3--|
    |------3-----1-----3-3--3-------3-----------1-1---3--|
    |----2-----0-------2-2--2-----0---------5---0-0---0--|
    |--0---------------0-0--0---5---------5--------------|
    |-----------------------------------3----------------|
    |----------------------------------------------------|…
  • Intro
    
    G|-------------------------------------------------------------------------|
    D|-------------------------------------------------------------------------|
    A|-------------------------------------------------------------------------|
    E|------------------------5-5-5-5-5-5-5-5----------------5-5-5-5-5-5-5-5---|…
  • 1 Estrofa
    
     E                  D                   C
    Si la vida no te da esperanza de seguir, No tienes
                           G
    por que andar, nada porque sobrevivir,
    
     E                          D           C
    Te…
  • Main riff
    G---------------------------------------------
    D---------------------------------3h5p3-------
    A-33333333----------------------35-----5------
    D---------55555555-77777777-3333--------------
  • Tuning: Regular, yo
    
    No intro on this song, just goes right to verse.
    
    Verse
    
    G|-----------------------------------------------------------------------|
    D|-----------------------------------------------------------------------|
    A|--55555555555555-44-22222222222222-00-----------------44-5555555555555-|
    E|--------------------------------------333333333333333------------------|
    
    Play…
  • verse
    G--------------------------
    D-----------------5h7p5----
    A-5-55----5-55---5-----7---
    D------5-------5-----------
    
    Chorus
    G---------------------------
    D---------------------------
    A--5555---------------------
    D-------5555-7777-5555------…
  • main riff:
    G--------------------------------------------
    D--------------------------3h5-------6h7p6---
    A-------------------3333333---3333/67-----7--
    D--33333333-55555555-------------------------
    
    
  • *=hold
                       4 Times
    E-----------------------------------|
    B-----------------------------------|
    G-----------------------------------|
    D------0-----0-0-------0-----0-0----|
    A----0---0-0-----0---0---0-0-----0--|
    E--0---------------0----------------|
    
    E------------0-0---------------|
    B----------------0-------------|
    G------------------0-----------|
    D----------0---------0---------|
    A------0*---------------0------|
    E--0*---------------------0*---|…
  • Main riff
    G-------------------------------------
    D-------------------------------------
    A-555-33-00-3-55555-33-55-------------
    D-------------------------------------
    
    
  • verse
    G--------------------------------------
    D--------------------------------------
    A--------------------------------------
    D-22222222-44444444-7777777777777777---
    
    Chorus
    G--------------------------------------
    D-------------------------3------------
    A-----------------------35-5-----------
    D-22---44---777777777777---------------…
  • Tuning: Normal
    
    Intro
    
    e|-------------------------------------------------------------------------|
    B|-------------------------------------------------------------------------|
    G|-------------------------------------------------------------------------|
    D|--7-->----2-->----7-->----2-->-------------------------------------------|
    A|--7-->----2-->----7-->----2-->-------------------------------------------|
    E|--5-->----0-->----5-->----0-->-------------------------------------------|
    
    Verse…
  • only riff
    G-------------------------------------
    D-------------------------------------
    A-3333333333333333---------------5----
    D-----------------33333333-555556-6---
    
    
  • intro/verse
    G---9--9--9--9--5--5--5--5--2--2--2--2--5--5--5--5--
    D-77-77-77-77-33-33-33-33-00-00-00-00-33-33-33-33---
    A---------------------------------------------------
    D---------------------------------------------------
    
    chorus
    G--------------------------------------------------------------------
    D--------------------------------------------------------------------
    A--------------------------------------------------------------------
    D-7777777777777777-333333333333333-0000000000000000-3333333333333333-
    
    bridge…
  • Main Riff
    G---------------------------------------
    D----------------------------------4----
    A--------------------------------46-6---
    D-44444444-88888888-99999999-6666-------
  • *=hold
    p=pull off
    
                          Repeat Twice
    E--3-3---3-3-4*--3-3---3-3-2*-3-3---3-3-4*-3-3---3-3-2*--|
    B------0-------------0------------0------------0---------|
    G--------------------------------------------------------|
    D--------------------------------------------------------|
    A--------------------------------------------------------|
    E--------------------------------------------------------|…
Наверх