Аккорды «Filter»

Filter
Американский индастриал-проект "Filter" появился на свет в виде дуэта: Брайан Лайзгэнг (программинг, гитара, клавишные, ударные) и Ричард Патрик (вокал, гитара, бас, программинг, ударные)игравший в свое время в Nine Inch Nails. Пока Патрик проводил эксперименты в восьмидорожечной студии в своем родном Кливленде, Лэйзгэнг получал философскую степень в чикагском университете и параллельно развлекался в студии, находившейся рядом с владениями Боба Муга (изобретателя современного синтезатора).… Читать полностью... Американский индастриал-проект "Filter" появился на свет в виде дуэта: Брайан Лайзгэнг (программинг, гитара, клавишные, ударные) и Ричард Патрик (вокал, гитара, бас, программинг, ударные)игравший в свое время в Nine Inch Nails. Пока Патрик проводил эксперименты в восьмидорожечной студии в своем родном Кливленде, Лэйзгэнг получал философскую степень в чикагском университете и параллельно развлекался в студии, находившейся рядом с владениями Боба Муга (изобретателя современного синтезатора). Позже парни познакомились через общего приятеля, а решение заниматься совместной деятельностью созрело в их головах во время путешествия по Великому Каньону. Летом 1994-го "Filter" приступили к записи первого альбома, и уже к концу года работа была завершена. Диск вышел в 1995-м на "Reprise records", причем продюсировал его Бен Гросс ("Jane's addiction", "Red hot chili peppers"). К удивлению самих музыкантов успех не замедлил себя ждать, и открывающий трек "Hey man, nice shot" стал хитом. Впоследствии эта агрессивно-индустриальная вещица прозвучала в саундтреке к фильму "The cable guy" и в одной из серий сериала X-Files. Брайан и Ричард не стали ограничиваться студийной деятельностью и собрали концертную конфигурацию "Filter", включавшую в себя Джено Ленардо (гитара), Мэтта Уолкера (ударные) и Фрэнка Каванага (бас). В таком виде команда гастролировала вплоть до августа 1996-го, а потом Уолкер подался в "Smashing pumpkins". Прошло чуть больше года, и коллектив покинул один из его основателей, Брайан Лайзгэнг, возжелавший заняться сольной карьерой. Кстати, Патрику в тот год тоже было не до "Filter", поскольку он работал вместе с "Crystal method" над саундтреком к фильму "Spawn". Вторая же "фильтрованная" студийная работа появилась только спустя пару лет. Помимо Ричарда Патрика (вокал, гитара) над ней трудились Джено Ленардо (гитара), Фрэнк Каванаг (бас) и Стив Джиллис (ударные). Усилия музыкантов не пропали даром, и альбом имел успех не только в Америке, но и во многих других странах (например, 75-е место в Англии и 12-е – в Новой Зеландии). В конечном итоге "Title Of Record" обрел заслуженный платиновый статус. Из всех треков на диске явно выделялась печальная и мелодичная композиция "Take a picture", ставшая хитом. Тур в поддержку альбома длился целых два года, в течение которых "Filter" исколесили четыре континента. Однако по возвращении домой музыкантам не пришлось долго отдыхать, и вскоре они приступили к работе над третьим альбомом. Новый диск получил забавное название "Amalgamut" (от "amalgamation" – "объединение" и "mutt" – "балбес"), в переводе на русский примерно означавшее "объединение балбесов". В студии помимо "фильтровщиков" находились все тот же продюсер Бен Гросс и звукорежиссер Раэ Дилео. Вся эта компания потрудилась на славу, и появившийся на свет в июле 2002-го "Amalgamut" занял достойное 32-е место в чартах "Billboard". Скрыть...
Популярные аккорды Filter:
алфавиту | просмотрам | случайно
  • Drop D Tune
    
    Intro and Verse:
    e|---------------------------------------------------------------------------|
    B|---------------------------------------------------------------------------|
    G|7777777x4-4444444/7777777444444------------------------------------------|
    D|7777777x4-4444444/7777777444444--listin…
  • ---DROP D tuning---
    
    I labeled this "Chords" cuz they're just chords tabbed out. The bass would play the same
    thing just using the bass notes.
    
    Verse:
    -e---x---x----x---x------|o
    -B---x---x----x---x------|o
    -G---x---x----x---x------|o
    -D---5---3----1---0------|o
    -A---5---3----1---0------|o
    -E---5---3----1---0------|o
    
    (---There…
  • tuning: whole step down, then drop to C
    	so we have C G C F A D
    
    song structure:		legend:
    intro 1			pm = palm mute
    intro 2			\  = slide forward
    verse			b  = bend
    pre-chorus              r  = release
    chorus…
  • dropped-D tuning (tune your low E string down to D)
    
            verse riff (could be a keyboard but you can simulate with
            palm muting and tinny distortion) - note: i haven't included
    	the exact amount of notes picked;…
  • Intro/Verse:
    G|----------------------|  sometimes they   
    D|----------------------|  play this after
    A|----------------------|  the last note:   
    E|-0------3-----5-------|                   E|---5/0--or----5h7p0-|
    
    Pre-Chorus…
  • Tuning: Drop-D and 2 and a half step down (AEADF#B)
    
    Geno Lenardo uses a Fender Subsonic guitar with special strings for this tuning
    (it's a baritone guitar)
    
    
    keys,
    
    / = slide up
    x = strum muted strings / mute string
    
    ****Intro/Verse****
    
    B…
  • Drop D tuning
    
    Intro drums…bass comes in with the guitars…
    
    G-------------------------------------the first part of the song is just the open d a few times.
    D-------------------------------------
    A-------------------------------------
    D----0-------------------------------…
  • Normal Tuning
    
    Intro & Verse
    | - 0 0 0 0 0 - 3 3 2 2 - 3 3 2 2 - - - - - 
    | - 0 0 0 0 0 - 3 3 3 3 - 3 3 3 3 - - - - -
    | - 2 2 2 2 2 - 2 2 2 2 - 2 2 2 2 - - - - - 
    | - 2 2 2 2 2 - 0 0 0 0 - 0 0 0 0 - - - - -
    | - 0 0 0 0 0…
  • Tuning: Standard (EADGBe)
    
    Intro - Odd noises and I think some sort of G chord played with delay.
    
    Verse (Rhythm):
    (Play these chords with the rhythm)
    e|---|----|---|---|---|---|---|---|
    B|---|----|---|---|---|---|---|---|
    G|---|----|---|---|---|---|---|---|…
  • Dropped "D" Tuning
    
    
     Intro:
    
      x4
    |----------------------|
    |*--------------------*|
    |*--------------------*|
    |--0-0--0-0--0-0--0-0--|
     
     1st part of Verse:
    
    |-----------------------------------------------------------------|
    |*---------------------------------------------------------------*|
    |*---------------------------------------------------------------*|
    |--0-0--0-0--0-0--0-0--0-0--0-0--0-0--0-0--0-0--0-0--0-0--0-0--3--|…
  • Drop D Tuning
    
    These are the Riffs, hope they are right
    I'm not really sure how many times he hits each chord
    
    ------------------------------------------------------------------------------
    ------------------------------------------------------------------------------
    ------------------------------------------------------------------------------
    ------------------------------------------------------------------------------
    --9-9-9-9-9-9-9-9-9-9-98-8-8-8-----------------------------------------------
    --9-9-9-9-9-9-9-9-9-9-98-8-8-8-----------------------------------------------…
  • Tuning:AADGBE
              
              
              E--------------
              B--------------
              G--------------
              D--------------
              A--------------
              A-3----/5---3-…
  • Tuning: CGCGCE
    
    Intro/Verse
    
    The main parts of the song are tabbed excluding the solo. Listen to the song for the
    strumming pattern. It's fairly simple. 
    
    e|---------------------------------------------------------------------------|
    B|-0-0-0-0--0-0-0--0-0-0-0--0-0-0--0-0-0-0--0-0------------------------------|
    G|-0-0-0-0--0-0-0--0-0-0-0--0-0-0--0-0-0-0--0-0------------------------------|
    D|-5-5-5-5--4-4-4--5-5-5-5--4-4-4--5-5-5-5--4-4------------------------------|
    A|-5-5-5-5--5-5-5--5-5-5-5--5-5-5--5-5-5-5--5-5------------------------------|
    E|---------------------------------------------------------------------------|
    
    Chorus
    
    e|---------------------------------------------------------------------------|
    B|---------------------------------------------------------------------------|
    G|-0-0-0-0--0-0-0-0--7-7-7-7-------------------------------------------------|
    D|-4-4-4-4--7-7-7-7--5-5-5-5-------------------------------------------------|
    A|-2-2-2-2--5-5-5-5--5-5-5-5-------------------------------------------------|
    E|-0-0-0-0--0-0-0-0--5-5-5-5-------------------------------------------------|…
  • Chords:   
    D-200230
    C-332010
    G-320033
    F-112331
    
    D		C
    Take another chance...
    G F
    D C
    G F
    D C
    G F
    D C
    G F
    
    
    
  • Tuning (low to high): D A D G B e
    
    Listen to the song for strumming pattern. 
    
    Intro and Verse
    e--------------------------------------------------------------
    B--------------------------------------------------------------
    G-11-11-11-11-11-11-11-11-12-11-18-16-14-----------------------
    D--X--X--X--X--X--X--X--X--X--X--X--X--X--X--X--X--X--X--X--X--
    A--9--9--9--9--9--9--9--9-10--9-16-14-12-12-12-12-12-12-12-12--
    D--0--0--0--0--0--0--0--0--0--0--0--0-12-12-12-12-12-12-12-12--
    
    Pre-Chorus…
  • INTRO
    
    C|--0----0----0----0--------------0--------|
    B|--1—---1----1----1--------------1--------|
    G|--0----2----2----2--------------2--------|
    D|--2----3----0----3---0-0h2p1p0--3--------|
    A|--3----0----0----3--------------0--------|
    D|-----------------------------------------|
    
    VERSE
    
    C|------------0-----------0----------------|
    B|------------1-----------1----------------|
    G|------------2-----------2----------------|
    D|-0-0h2p1p0--3--0-2p1p0--3----------------|
    A|------------0-----------0----------------|
    D|-----------------------------------------|
    
    C|-----------0----0---0--0-----------------|
    B|-----------0----0---1--1-----------------|
    G|-----------0----0---2--2-----------------|
    D|---------7-7--5-5-0-0--3-----------------|
    A|---------7-7--5-5-0-0--3-----------------|
    D|-0-2-3-5-7-7--5-5-0-0--0-----------------|
    
    CHORUS…
  • Dropped-D tuning
    
    Intro/Main Riff
    *note* those are ten's, twelve's, and thirteen's.
    *note* the (3)'s is natural harmonics, I strum them like a pinched harmonic 
    to get that weird tone with it.
    
    e|-------------------------------------(3)(3)(3)(3)-|
    B|-------------------------------------(3)(3)(3)(3)-|
    G|-------------------------------------(3)(3)(3)(3)-|
    D|-0-10-12--0-13-12--0-10-12--0-13-12--(3)(3)(3)(3)-|
    A|-0-10-12--0-13-12--0-10-12--0-13-12---------------|
    D|-0-10-12--0-13-12--0-10-12--0-13-12---------------|
    
    e|-----------------------------------------------|
    B|-----------------------------------------------|
    G|-----------------------------------------------|
    D|-0-10-12--0-13-12--0-10-12--0-13-12--0-12-0-12-|
    A|-0-10-12--0-13-12--0-10-12--0-13-12--0-12-0-12-|
    D|-0-10-12--0-13-12--0-10-12--0-13-12--0-12-0-12-|
    
    
    Verse…
  • Tune down 1/2 step (Low to high:Eb Ab Db Gb)
    
    ---------------------------------------------------------------------------------
    ---------------------------------------------------------------------------------
    -7-----7-------7-----10----------7------7------7----------7-----7----------------
    ---0-0----0-0----0-0-----0-0-0------0-0----0-0----0-0-0------0-----0-0-----------
    
    --------------------------------------------------------------------------------------------------
    --------------------------------------------------------------------------------------------------
    ---7-----7-----10------7-----7--------7------7-----7-------7------7-------7------7---7-10---------
    ------0-----0------0------0-----0--------0------0------0-------0-----0-0-----0-0---0-------0-0-0--…
  • Intro
    E---------------------------------
    B---10h12-------------------------
    G---------12-11-11-11-11h12-9-----
    D----------------------------12-10
    A-0-------------------------------
    E---------------------------------
    
    Verse
    E---------------------------
    B---------------------------
    G--9-9-9-9-12-12-11-7-9-9---…
  • D tuning
    
    Intro:
    
    Riff A:
    
    e|---------------------------------------------------------------------------|
    B|---------------------------------------------------------------------------|
    G|---------------------------------------------------------------------------|
    D|---3-0-0-3-0-0-3-0--3-0-0-3-0-0-3-0--3-0-0-3-0-0-3-0--6-6-6-6-6-6-6-6------|
    A|---3-0-0-3-0-0-3-0--3-0-0-3-0-0-3-0--3-0-0-3-0-0-3-0--6-6-6-6-6-6-6-6------|
    D|---3-0-0-3-0-0-3-0--3-0-0-3-0-0-3-0--3-0-0-3-0-0-3-0--6-6-6-6-6-6-6-6------|
    
    play…
  • Tuning: DADGBe (dropped D)
    
    Gtr. 1 (acoustic doubled throughout) Verse
    e|---------------------------------------------------------------------------|
    B|---------------------------------------------------------------------------|
    G|-x-4-4-4-7-4-4-4-4-7-9-11--------------------------------------------------|
    D|-x-x-0-x-x-0-x-0-x-x-x-x---------------------------------------------------|
    A|-x-2-0-2-5-0-2-0-2-5-7-9---------------------------------------------------|
    D|-x-0-0-0-0-0-0-0-0-0-0-0---------------------------------------------------|
    
    Gtr…
  • Dropped "D"
    
    -Bass Guitar-
    verse:
    |---------------------------------------------------------|
    |*-------------------------------------------------------*|
    |*-------------------------------------------------------*|
    |--11-11-11-11-11-11-11-11-11-11-0-0-0-0-0-0-0-0-0-0-0-0--|
    
    pre-verse:
    |-----------------------------------|
    |*---------------------------------*|
    |*---------------------------------*|
    |--7-7-7-7-7-7-7-7-8-8-8-8-8-8-8-8--|
    
    chorus:
    |---------------------------------------|
    |*-------------------------------------*|
    |*-------------------------------------*|
    |--0-0-0-0-0-0-2-2-2-2-2-2-5-5-5-5-5-5--|
    
    interlude:
    |----|
    |----|
    |----|
    |----|…
  • Tuning: Standard
    Distortion: Heavy
    
    x: Dead note
    ~: Hold note
    
    INTRO:
    (those are feedback and studio sounds)
    
    1:-------------------------|
    2:-------------------------|
    3:-------------------------|
    4:-3-0-5--3-0-6--3---------|
    5:-3-0-5--3-0-6--3---------|
    6:-1-0-3--1-0-4--1---------|
    
    CHORUS:
    
    1:------------------------------------------------------------------------------------------------|
    2:------------------------------------------------------------------------------------------------|
    3:-6--6-6-6-6-6-6-6-6-6-6--7--7-7-7-7-7-7-7-7-7-7-------------------------------------------------|
    4:-6--6-6-6-6-6-6-6-6-6-6--7--7-7-7-7-7-7-7-7-7-7--6--6-6-6-6-6-6-6-6-6-6--5--5-5-5-5-5-5-5-5-5-5-|
    5:-4--4-4-4-4-4-4-4-4-4-4--5--5-5-5-5-5-5-5-5-5-5--6--6-6-6-6-6-6-6-6-6-6--5--5-5-5-5-5-5-5-5-5-5-|
    6:-------------------------5--5-5-5-5-5-5-5-5-5-5--4--4-4-4-4-4-4-4-4-4-4--3--3-3-3-3-3-3-3-3-3-3-|
    
    1:-------------------------------------------------------------------------------------------|
    2:-------------------------------------------------------------------------------------------|
    3:--6--6-6-6-6-6-6-6-6-6-6--7~~~~~~~~~~~~~~~~~~~~~-------------------------------------------|
    4:--6--6-6-6-6-6-6-6-6-6-6--7~~~~~~~~~~~~~~~~~~~~~--6--6-6-6-6-6-6-6-6-6-6--3-0-5--3-0-6--3--|
    5:--4--4-4-4-4-4-4-4-4-4-4--5~~~~~~~~~~~~~~~~~~~~~--6--6-6-6-6-6-6-6-6-6-6--3-0-5--3-0-6--3--|
    6:--------------------------5~~~~~~~~~~~~~~~~~~~~~--4--4-4-4-4-4-4-4-4-4-4--1-0-3--1-0-4--1--|
    
    BRIDGE:
    
    1:--------------------------|
    2:------------------7-7-7---|
    3:------------7-7-7-7-7-7-7-|
    4:--x-x-x-x-x-7-7-7-7-7-7-7-|
    5:--x-x-x-x-x-5-5-5-5-5-5-5-|
    6:--x-x-x-x-x---------------|…
  • Intro/Verse 1(w/ slight distortion or fuzz)
    G-------------------------------------------
    D-------------------------------------------
    A-------------------------------------------
    E-0-0-10-0-12-0-10-0-0-10-0-10-0-12---------
    
    Chorus(When…
  • Tuning:drop D
    
    e|-------------------------------------|
    B|-------------------------------------|
    G|-------------------------------------|
    D|-6---------6-------6---------3-5-3-5-| X4
    A|-6-0-0-0-0-6-0-0-0-6-0-0-0-0-3-5-3-5-|
    D|-6-0-0-0-0-6-0-0-0-6-0-0-0-0-3-5-3-5-|
    
    e|-----------------------|
    B|-----------------------|
    G|-----------------------|
    D|-----------------3-5-3-|…
  • Tuning: D A D G B D - (low to high)
                                
    Song progression:
    
    [CD Intro]:
       
    D:--0-0-0-0-0-0-0-0-0-0-0-0---------------|
    B:-3-3-3-3-3-3-3-3-3-3-3-3----------------|
    G:----------------------------------------|
    D:----------------------------------------|
    A:----------------------------------------|
    D:----------------------------------------|…
  • (Riff 1)
              ----------------------------------------
              ----------------------------------------
              ----------------------------------------
              0-0--4-4-4-5-5-5-5-5-5------------------…
  • tunning (low to high) d a d g b e
    
    the song is is done correctly without the fills that geno does.
    
    Intro(Guitar only)              Then Bass comes in
    e------------------------------ e------------------------------|
    b------------------------------…
  • Drop D Tuning
    
    This is the only Riff I know
    ------------------------------------------------------------------------------
    ------------------------------------------------------------------------------
    ------------------------------------------------------------------------------
    ------------------------------------------------------------------------------
    -2-2-2-2-2-2-2-2-0-0-0-0-0-0-0-0-5-5-5-5-5-5-5-5-5-5-5-5-5-5-5-5--------------
    -2-2-2-2-2-2-2-2-0-0-0-0-0-0-0-0-5-5-5-5-5-5-5-5-5-5-5-5-5-5-5-5--------------
    Palm…
  • tuning CGCF   guitar intro then this (heavy)
    1]---------------------------------------------------------
    2]---------------------------------------------------------
    3]---------------------------------------------------------
    4]--0)-0)-5-7/10--0)-0)-5-7/10--0)-0)-5-7/10--0)-0)-5-7/10-…
  • 2 Guitars, the lead is tunned normally, and the rythem is tunned
    (D A D G B E) Both with heavy distortion
    
    it starts out like this            then the lead comes in like this
    D---------xx----xx-------      E ----19-------…
  • Verse - 0:05
     G|----------------|----------------|
     D|----------------|----------------|
     A|----------------|----------------|
     D|0-3-5-0-3-0-0-0-|0-3-5-0-5-6-6-6-| x13
    
    
    
    
    Chorus - 0:46
     G|----------------------------------------------------------------|…
  • E string tuned to D
    /=hammer on or slide
    
    during verses play this riff
    ||.-----------------------------------------------------|
    ||.-----------------------------------------------------|
    ||------------------------------------------------------|
    ||-0-3-3-0-3-0-0-0-0-0-3-3-0-3-0-0-0-0-0-3-3-0-3-0-0-0-0|
    
    |----------------.||
    |----------------.||
    |-----------------||
    |-0-3-3-0-6-6-6-6-||
    
    "hey…
  • TUNING: Drop A (drop you low E to an A, one octave below your A string)
    
    Verses:
    -------
    
    Either Guitar 1 or 2: (heavy distortion)
    
    e:----------------------------------------------------------------
    B:----------------------------------------------------------------
    G:----------------------------------------------------------------
    D:--3/5--5--5--3---0-3/5--5--5--3---0-3/5--5--5--3---0-3/5--5--8--
    A:--3/5--5--5--3---0-3/5--5--5--3---0-3/5--5--5--3---0-3/5--5--8--
    A:--3/5--5--5--3---0-3/5--5--5--3---0-3/5--5--5--3---0-3/5--5--8--
    (hold)
    
    e:----------------------------------------------------------------
    B:----------------------------------------------------------------
    G:----------------------------------------------------------------
    D:--3/5--5--5--3---0-3/5--5--5--3---0-3/5--5--5--3---0-3-0-3-0-3--
    A:--3/5--5--5--3---0-3/5--5--5--3---0-3/5--5--5--3---0-3-0-3-0-3--
    A:--3/5--5--5--3---0-3/5--5--5--3---0-3/5--5--5--3---0-3-0-3-0-3--
    
    For…
Наверх