Аккорды «Finch»

Finch
Группа из городка Темекула, Калифорния. Группа прошла длинный путь, начиная с формирования в 1999 году. Скачок группы от момента игры в гараже к собственной репетиционной базе. Ранди одно время работал на «Drive-Thru», и, естественно, у него остались связи с лейблом. К моменту, когда группа ощутила, что готова к большой сцене, Ранди позвонил Ричарду (хозяину Drive-Thru Record's) и сказал, что у него есть продукт, который заинтересует его лейбл, на что Ричард ответил: «бери парней и приезжай на студию».… Читать полностью... Группа из городка Темекула, Калифорния. Группа прошла длинный путь, начиная с формирования в 1999 году. Скачок группы от момента игры в гараже к собственной репетиционной базе. Ранди одно время работал на «Drive-Thru», и, естественно, у него остались связи с лейблом. К моменту, когда группа ощутила, что готова к большой сцене, Ранди позвонил Ричарду (хозяину Drive-Thru Record's) и сказал, что у него есть продукт, который заинтересует его лейбл, на что Ричард ответил: «бери парней и приезжай на студию». После того как Ричард прослушал Finch, он сразу же предложил им контракт, от которого группа не могла отказаться. После заключения контракта с «Drive-Thru» группа отправилась в студию, чтобы записать мини-альбом «Falling Into Place». Не смотря на то что EP состоял только из четырех песен, каждый трек в нем — это превосходное сочетание мягкости и необузданной агрессии. Продюсировал альбом Крис Фудурич (его детища The Hippos, Rx Bandits). «Falling Into Place» был выпущен 9 октября 2001 и продан более чем 6000 копий к концу 2001 года. В августе 2001 года группа скрылась в студии звукозаписи (Big Fish Studio) в Encinitas и начала работать над записью своего следующего альбома. В то время у руля был Марк Тромбино, который работал с Jimmy Eat World, Blink 182, Midtown и многими другими группами. Новый альбом назывался «What It Is to Burn» и вышел 12 марта 2002 года. После выхода альбома Finch захватили первые места в пределах их музыки (emo). Сразу после выхода альбома Finch вместе с Rx Bandits отправились в турне (Warped Tour). Вокалист Нейт Баркалоу сказал, что вершины своей славы они достигли с помощью альбома «What It Is to Burn». Этим альбомом Баркалоу показывает лирическую зрелость в его возрасте. В 2003 году Finch заключили контракт с известным лейблом Universal Record's. В 2005 году выходит альбом «Say Hello to Sunshine». Он оказался более продвинут в техническом плане, и вызвал неоднозначные отклики. Но в любом случае стало ясно, что для того чтобы понять альбом, надо не раз его прослушать. Пожелания, которые были написаны на одной из обложек альбома Finch: Независимо от того, где Вы и Кто… какую музыку предпочитаете: rock, punk, emo, hardcore, или nu-metal — Finch будет всегда играть для Вас. В 2006 году группа объявляет о бессрочном отпуске, и выступления прекращаются. В 2007 году Finch собрались вновь, пообещав своим поклонникам, что это не кратковременное объединение ради пары концертов, а твёрдое решение участников продолжить творческую деятельность коллектива. Однако Деррик Доерти (Deryk Doherty, бас) и Марк Ален (Marc Allen, ударные) не разделили оптимизма товарищей и от дальнейшей совместной работы отказались. Заменив их новыми музыкантами, группа приняла участие в нескольких крупных фестивалях, на одном из которых Нэйт Баркалоу (Nate Barcalow, вокал) со сцены заявил о намерении в ближайшее время записать альбом. Большие планы коллектива ограничились выпуском «Finch EP», состоящего лишь из четырёх новых треков. 17 декабря 2010 года группа заявила о прекращении своего существования, выпустив напоследок «Epilogue EP», состоящий из двух треков. В 2012 группа воссоединилась для тура в честь 10-летия первого альбома. Успех тура вылился в то, что Finch решили записать новый альбом и 30 сентября 2014 года выходит «Back to Oblivion». Состав Nate Barcalow Alex Linares Alex Pappas Randy Strohmeyer Daniel Wonacott Прежние участники Derek Doherty Marc Allen Drew Marcogliese Скрыть...
Популярные аккорды Finch:
алфавиту | просмотрам | случайно
  • Chorus
    
    ---------------------------------|---------------------------------|
    ---------------------------------|---------------------------------|
    -4-4-4-4-4-4-4-4-4-4-4-4-4-4-4-4-|---------------------------------|
    ---------------------------------|-6-6-6-6-6-6-6-6-6-6-6-6-6-6-6-6-|
    
    ---------------------------------|---------------------------------|
    ---------------------------------|---------------------------------|
    ---------------------------------|---------------------------------|
    -4-4-4-4-4-4-4-4-4-4-4-4-4-4-4-4-|-2-2-2-2-2-2-2-2-2-2-2-2-2-2-2-2-|
    
    
    
    Riff…
  • Guitar 1
                                                           
    D#||--5--5--5--5--5--5--5--5--5--5--5--5--5--5--5--5--|
    A#||--5--5--5--5--5--5--5--5--5--5--5--5--5--5--5--5--|
    F#||--7--7--7--7--7--7--7--7--7--7--7--7--7--7--7--7--|
    C#||--------------------------------------------------|
    G#||--------------------------------------------------|
    C#||--------------------------------------------------|…
  • Intro 
    eb|-------------------------------------------------------|
    Bb|-------------------------------------------------------|
    Gb|-----11----11--11--11--11--11--11-/--12--12--12-/--11--|
    Db|-----X-----X---X---X---X---X---X--/--X---X---X--/--X---|
    Ab|-----9-----9---9---9---9---9---9--/--10--10--10-/--9---|
    Db|-----0-----0---0---0---0---0---0--/--0---0---0--/--0---|
    
    eb|---------------------------------------------------------------|
    Bb|---------------------------------------------------------------|
    Gb|-----11----11--11--11--11--11--11-/--12--12--12-/--11-11-/-7---|
    Db|-----X-----X---X---X---X---X---X--/--X---X---X--/--X--X--/-X---|
    Ab|-----9-----9---9---9---9---9---9--/--10--10--10-/--9--9--/-5---|
    Db|-----0-----0---0---0---0---0---0--/--0---0---0--/--0--0--/-0---|
    
    eb|-------------------------------------------------------|
    Bb|-------------------------------------------------------|
    Gb|-----11----11--11--11--11--11--11-/--12--12--12-/--11--|
    Db|-----X-----X---X---X---X---X---X--/--X---X---X--/--X---|
    Ab|-----9-----9---9---9---9---9---9--/--10--10--10-/--9---|
    Db|-----0-----0---0---0---0---0---0--/--0---0---0--/--0---|
    
    The…
  • Bass
                                                              
    F#||--------------------------|--------------------------|
    C#||*-------------------------|--------------------------|
    G#||*--4----4--4--4--4--4--4--|--4--4--4--4--4--4--4--4--|
    C#||--------------------------|--------------------------|…
  • Tuning: Down One Whole Step (D,G,C,F,A,D)
    
    Intro:
    
         Asus2
    1:|--------------------------|
    2:|--------2-----2-----2-----|
    3:|--------------------------|  
    4:|-----4-----4-----4--------|  6x
    5:|--2--------------------1--|
    6:|--------------------------|
    
    Then:…
  • Tuning: Standard flat tuning (eb Bb Gb Db Ab Eb high to low)
    
    
    INTRO
    
    eb|-----7------7-----7-6b(7)-6b(7)-----7-6b(7)-6b(7)-------------------------| Play as needed
    Bb|--8-8--8-8-8---8-8---------------8-8--------------------------------------|
    Gb|-9-9--9-9-9---8-8---------------8-8---------------------------------------|
    Db|--------------------------------------------------------------------------|
    Ab|--------------------------------------------------------------------------|
    Eb|--------------------------------------------------------------------------|
    
    eb|--------------------------------------------------------------------------|
    Bb|--------------------------------------------------------------------------|
    Gb|-------------------99-77-444444-22-55-33---------------99-77-44-22-55-33--|
    Db|-2-2-0h1-1h2-2h3p0-99-77-444444-22-55-33-0h1-1h2-2h3p0-99-77-44-22-55-33--|
    Ab|-2-2---------------77-55-222222-00-33-11---------------77-55-22-00-33-11--|
    Eb|-0-0----------------------------------------------------------------------|
    
    ^^…
  • Drop D Tuning (DADGBe)
    
    Intro 
    e|-x---x---x---x--| 
    B|-x---x---x---x--| 
    G|-8---7---7---7--| 
    D|-x---x---x---5--|  Strum occasionally
    A|-6---6---5---5--| 
    D|-x---x---x---x--| 
    
    Pre-chorus
    e|-x---x---x---x--| 
    B|-x---x---x---x--|…
  • Tuning- Db-Ab-Db-Gb-Bb-Eb
    
    + = harmonic
    *NOTE*  play the harmonics on the frets, not between them. (If you didn't know that already)
    
    Intro (Guitar 1)
    Eb----------------------------------------------
    Bb----------------------------------------------
    Gb----------------------------------------------
    Db----------------------------------------------
    Ab------+4-+4-+5-+5-----+4-+4-+5-+5-----+4-+4---
    Db-+5-+5-----------+5-+5-----------+5-+5--------
    
    Intro…
  • Notes played during quiet intro:[All of this is played 4 times]
    
    E-----------------------------------------------------------------------|
    B-----------------------------------------------------------------------|
    G-----------------------------------------------------------------------|
    D-------6-----6---6-----------------------------------------------------|X5
    A---4-4---4-4---4-------------------------------------------------------|
    E-----------------------------------------------------------------------|…
  • Half-step down (eb Bb Gb Db Ab Eb)
    6/8
    
    INTRO - vocals
    VERSE
    Randy Strohmeyer (0:43)
    
                         dududu dududu d  dudu
    eb|---------------------------------------------------------------------------|
    Bb|---------------------------------------------------------------------------|
    Gb|---------------------------------------------------------------------------|
    Db|-5-3-0------5-3-0----------------------------------------------------------|
    Ab|------44-44-------444444-444444-4--4444------------------------------------|
    Eb|---------------------------------------------------------------------------|
    
    CHORUS
    Alex…
  • Tuning: Drop D + Half Step Down (Db Ab Db Gb) 
    
    Intro 1: (Pickscrape For A Little Bit...Sounds Good)
    eb|-----|
    Bb|-----|
    Gb|-5~--| 
    Db|-3~--| 
    Ab|-3~--| 
    Db|-3~--| 
    
    Intro 2:
    eb|----------------------------------------------------------------|
    Bb|----------------------------------------------------------------|
    Gb|----------------------------------------------------------------|…
  • Key: B
    
    Tuning: Standard EADGBe
    
    Chords used:
    B -     x24442
    Ebm -   x68876
    G#m -   466444
    F# -    244322
    E -     022100
    C#m -   x46654
    G -     320033
    F#/Bb - x143xx
    C#/F -  143xxx
    
    
    Intro:
         C#m  E x4
    Breakdown!
    Down!
    
    Guitar…
  • Key:  G# 
    
    Tuning: Standard EADGBe
    
    Chords used:
    Fm - 133111
    C# - x46664
    G# - 466544
    F# - 244322
    
    
    Intro: Fm--C#-- x2
    
    
    Verse 1:
    Fm         C#
      Kiss the sun 
            Fm
    in your eyes
           C#
    Love unveiled…
  • Key: C#, F#
    
    Tuning: Standard EADGBe
    
    Chords used:
    C# -  x46664
    G# -  466544
    Bbm - x13321
    F# -  244322
    Fm -  133111
    B -   x24442
    Ebm - x68876
    
    
    Intro: F#-- x2, F#--G#--
    F#--G#--Bbm--Bbm(hold)
    
    Distortion:…
  • tuning: E-A-D-G-B-E (standard tuning)
    
    
    Intro(Guitar1): repeat8x
    e-18----------------------
    b--18--18----18----18-----
    g----18--18----18----18---
    d----------18----18----18-
    a-------------------------
    e-------------------------
    (on…
  • Play with Capo 6.
    
    
    Intro: Em   G   Cmaj7   G 
           Em   G   Cmaj7   G
    
    Verse: Em   G   Cmaj7   G
           Em   G   Cmaj7   G 
           Em   G   Cmaj7   G
           Em   G   Cmaj7   G   G
    
    Chorus:D    C9    G     G
           D…
  • Tuning: Standard E (4-string), Drop B (5-string)
    
    Riff #1:
    (Repeat 2 times)
    G|---------------------------------------------------------------------------|
    D|---------------------------------------------------------------------------|
    A|-0-0--0-0------------------------------------------------------------------|
    E|-----------2-2--2-2--------------------------------------------------------|
    
    Riff…
  • Legends
    ~ = let ring (or sometimes just keep struming)
    * = harmonic
    . = palm mute
    / = slide up
    ^ = bend up
    
    
    
    Intro (~ = keep strumming)
    Eb|-------------------------------------|
    Bb|-5-5-5-5-5-5-5-5-5^-5^-5^-5^-5^-5^---|
    Gb|-8-8-8-8-8-8-8-8-8^-8^-8^-8^-8^-8^---|
    Db|-------------------------------------|
    Ab|-------------------------------------|
    Db|-------------------------------------|
    
    (~…
  • Tuning: Drop Db. To get to this, go half a step down from standard and a further
    step down on the lowest string.
    
    eb|---------------------------------------------------------------------------| 
    Bb|---------------------------------------------------------------------------|…
  • Intro
    E |-----5-7-2-3-0-2--------0------5-7-2-3-0-2-3-5-|
    B |-----------------3-2--2---2--------------------|
    G |---------------------2-2-2-2-0-----------------|
    D |-----------------------------------------------|
    A…
  • Standard C# Tuning
    
    Intro:
    Guitar 1
    d#-------------------------------------------------------------   -4--
    A#-5-4-0-5-4-0-5-4-5-4-0-5-4-0-5-4-5-4-0-5-4-0-5-4-5-4-0-5-4-0- X2--7-
    F#-------------------------------------------------------------…
  • Key: E
    
    Tuning: Standard EADGBe
    
    Chords used:
    C#m - x46654
    E -   022100
    B -   x24442
    D -   xx0232
    F#m - 244222
    A -   x02220
    Bbm - x13321
    C -   x35553
    
    
    Intro:
    
    Bass: C#m-E-B-D x4
    
    Guitar: C#m-E-B-D x4
    
    
    Verse…
  • Tuning: Standard tuning dropped a half step down.
    
    Intro/Verse
    eb|-----------------------------0--|
    Bb|-----------------------------0--|The Intro and the
    Gb|-------------3-3-6-6-2-2-2-2----|verses are exactly the 	
    Db|-2-2-3-3-5-5-3-3-6-6-2-2-2-2----|same,…
  • Key: Eb then C#
    
    Chords used:
    Eb -  x68886
    Gm -  355333
    Cm -  x35543
    F# -  244322
    Fm -  133111
    Bbm - x13321
    D -   xx0232
    F -   133211
    E -   022100
    
    
    Intro: Eb-Gm-Cm x6, F#--Fm-Bbm
    
    
    Verse 1:
    F#
      All of…
  • Tuning:DADGBE (tuned half step down)
    
    Intro:
    Guitar 1
    e|----------------------------------------------------------------------------------------|
    B|----------------------------------------------------------------------------------------|
    G|---------------44----999-------777------------------------------------------------------|…
  • Tuning: (low to high) Db Ab Db Gb Bb eb 
    
    Intro                         *
    eb|-------------------------------------------------------------| 
    Bb|-------------------------------------------------------------| Repeat this…
  • -x--------------------------------------------|
    -x--------------------------------------------|
    -x--------------------------------------------|
    -x--10---9--ring------------------------------|
    -x--12--10------------------------------------|
    -x--------------------------------------------|
    
    ---------------------------------------------------------------------------|
    ---------------------------------------------------------------------------|
    ---------------------------------------------------------------------------|
    ---7---12-12--7-7-10-10-5-5---7--3-3-3--7-3-3-3--5-5-5--7-3-3-3------------|
    ---7---12-12--7-7-10-10-5-5---7--3-3-3--7-3-3-3--5-5-5--7-3-3-3------------|
    ---7---12-12--7-7-10-10-5-5---7--3-3-3--7-3-3-3--5-5-5--7-3-3-3------------|
    
    -------------------------------------------------|
    -------------------------------------------------|
    -----------x-------------------------------------|
    -3--2-2-2--x--3----------------------------------|
    -5--3-3-3--x--2-ring-----------------------------|
    -----------x-------------------------------------|
    
    ------------------I-----------------------------------------|
    ------------------I-----------------------------------------|
    ------2-------2---I-x---------------------------------------|
    --3-2-2---3-2-2---I-x--3-2-ring-----------------------------|
    --3-2-0---3-2-0---I-x--5-3----------------------------------|
    --3-2-----3-2-----I-x---------------------------------------|…
  • Intro:
     
    E--------------------------------------------------------------------------|
    B---9-6-9-6-9--9-6-9-6-9--9-6-9-6-9--9-6-9-6-9--9-6-9-6-9--9-6-9-6---------|
    G--------------------------------------------------------------------------|
    D--------------------------------------------------------------------------|
    A--------------------------------------------------------------------------|
    E--------------------------------------------------------------------------|
    
    E--------------------------------------------------------------------------|
    B--------------------------------------------------------------------------|
    G---8-8-8-8-8-8-8-8--5~----------------------------------------------------|
    D--------------------------------------------------------------------------|
    A--------------------------------------------------------------------------|
    E--------------------------------------------------------------------------|
    
    
    Part…
  • Key: Eb, F#, E
    
    Tuning: Standard EADGBe
    
    Chords used:
    Eb -  x68886
    F# -  244322
    Abm - 466444
    G -   320033
    Bb -  x13331
    B -   x24442
    A -   x02220
    C#m - x46654
    E -   022100
    F#m - 244222
    
    Verse 1:
    Eb
      You…
  • Tuning: Drop Db (Db,Ab,Db,Gb,B,Eb) Low to High
    
    Intro
    eb|-----------------------------------------------------------------------------------------|
    Bb|-----------------------------------------------------------------------------------------|
    Gb|----------------------7--5----------------------5--7-------------------------------------|
    Db|-----8--5--7--8--5-5--7--5--8--8--5--7--8--5-5--5--7--8--7-0-7-0-7-0-7-0-7-0-7-0-7-0-7-0-|
    Ab|-----8--5--7--8--5-5--5--3--8--8--5--7--8--5-5--3--5--8--7-0-7-0-7-0-7-0-7-0-7-0-7-0-7-0-|
    Db|-----8--5--7--8--5-5--------8--8--5--7--8--5-5--------8--7-0-7-0-7-0-7-0-7-0-7-0-7-0-7-0-|
    
    eb|----------------------------------------------------------------------------------|
    Bb|----------------------------------------------------------------------------------|
    Gb|----------------------7--5----------------------5--7----------9-------9-----------|
    Db|-----8--5--7--8--5-5--7--5--8--8--5--7--8--5-5--5--7--8--7-7------7-7--------8-8\-|
    Ab|-----8--5--7--8--5-5--5--3--8--8--5--7--8--5-5--3--5--8--7-7------7-7--------8-8\-|
    Db|-----8--5--7--8--5-5--------8--8--5--7--8--5-5--------8--7-7------7-7--------8-8\-|
    
    Verse…
  • Tuning: (low to high) Db Ab Db Gb Bb eb 
    
    Intro: Guitar One
    eb|-----------------------------------------------------|  
    Bb|-----------------------------------------------------|  
    Gb|------------------------9-9-9-9-9-9-9-6-6-6-6-6-6----|…
  • Key: C#, F#
    
    Tuning: Standard EADGBe
    
    Chords used:
    C# -  x46664
    Bbm - x13321
    Ebm - x68876
    D -   xx0232
    F# -  244322
    Abm - 466444
    A -   x02220
    
    
    Intro: 
    
    Silent: C#-Bbm-Ebm-D-
    
    Distortion: F#-F#-F#-F#-F#
    
    
    Verse…
  • A 
              
           ---------- 
           ----3----- 
           ----2----- 
           ---------- 
           ----1----- 
           ---------- 
    
    
        A                   A
    I'm sleeping to give my head a rest 
    
            A…
  • The Tuning for this song is;
    eb
    Bb
    Gb
    Db
    Ab
    Db
    
    
    Intro 
    Guitar 1
    |----------------------------------------|
    |--------------------66------------------|
    |--------------------88------------------|
    |-----5-----------5----------------------|
    |-----5-----------5----------------------|
    |-5h7---000--5h7-------------------------|
    
    Guitar…
  • Tuning: (low to high) Eb Ab Db Gb Bb eb 
    
    Intro
    eb|-----------------------------------------|
    Bb|-----------------------------------------| Play this twice.
    Gb|-----------------------------------------| 
    Db|--2--2--2--2--2--2---2--2--2--2--2--2----|…
  • Drop D Tuning + 1/2 step down
    
    Intro:
    eb|-----------------------------|
    Bb|-----------------------------| 
    Gb|-2-2-2-----------------------| 
    Db|-0-0-0--2p0h20h20h20h2--5-5--|
    Ab|-0-0-0--2p0h20h20h20h2--5-5--|
    Db|-0-0-0--2p0h20h20h20h2--5-5--|
    
    Verse:
    eb|----------------------|
    Bb|----------------------|
    Gb|----------------------|
    Db|-2p0h20h20h20h2--5-5--|
    Ab|-2p0h20h20h20h2--5-5--|
    Db|-2p0h20h20h20h2--5-5--|
    
    Chorus:
    eb|----------------------------------------------------------------|
    Bb|------3-3--3-3p1------3-3--3-3p1------3-3--3-3p1----3-3--3-3p1--|
    Gb|----------------------------------------------------------------|
    Db|-5-5--------------5-5------------2-2------------2-2-------------|
    Ab|-5-5--------------5-5------------2-2------------2-2-------------|
    Db|-5-5--------------5-5------------2-2------------2-2-------------|
    
    Interlude:
    eb|-----------------|
    Bb|-----------------|
    Gb|-----------------|
    Db|-5-5--5-5--5-5---|
    Ab|-5-5--5-5--5-5---|
    Db|-5-5--5-5--5-5---|
    
    Interlude…
  • e|-----2-----2-----2---------------------------------------------------
    B|------4-----4--------------------------------------------------------
    G|-3h4----3h4---3h4----------------------------------------------------
    D|---------------------------------------------------------------------
    A|---------------------------------------------------------------------
    E|---------------------------------------------------------------------
    
    e|---------------------------------------------------------------------
    B|-----------0-0-------------------------------------------------------
    G|---4---4----3--------------------------------------------------------
    D|--2-2-2-2-1---1------------------------------------------------------
    A|-4---4---2-----2-----------------------------------------------------
    E|---------------------------------------------------------------------
    
    e|---------------------------------------------------------------------
    B|---------------------------------------------------------------------
    G|-xxxxxxx-444—-44444444--444444444444---------------------------------
    D|-xxxxxxx-222—-22222222--111111111111---------------------------------
    A|-xxxxxxx-444—-44444444--222222222222---------------------------------
    E|---------------------------------------------------------------------
    
    e|---------------------------------------------------------------------
    B|---------------------------------------------------------------------
    G|---------------------------------------------------------------------
    D|-6666666666666666-2222-9999999999999999-6666666666666666-8888-9999999
    A|-6666666666666666-2222-9999999999999999-6666666666666666-8888-9999999
    E|-4444444444444444-0000-7777777777777777-4444444444444444-6666-7777777
    
    -----------------------------------------------------------------------
    -----------------------------------------------------------------------
    -----------------------------------------------------------------------
    999999999--------------------------------------------------------------
    999999999--------------------------------------------------------------
    777777777--------------------------------------------------------------
    
    e|---------------------------------------------------------------------
    B|---------------------------------------------------------------------
    G|-8888888888888888-10101010-11111111111111111111111111111111----------
    D|-xxxxxxxxxxxxxxxx-x-x-x-x—-x-x-x-x-x-x-x-x-x-x-x-x-x-x-x-x-----------
    A|-6666666666666666-8-8-8-8--9-9-9-9-9-9-9-9-9-9-9-9-9-9-9-9-----------
    E|---------------------------------------------------------------------
    
    e|---------------------------------------------------------------------
    B|---------------------------------------------------------------------
    G|------x-33333h4------------------------------------------------------
    D|-444-x-----------2-22222-222222--------------------------------------
    A|-444-x-----------2-22222-222222--------------------------------------
    E|-222-x-----------0-00000-000000--------------------------------------
    
    e|---------------------------------------------------------------------
    B|---------------------------------------------------------------------
    G|------------------88888888-------------------------------------------
    D|-9999999999999999-88888888-44444444----------------------------------
    A|-9999999999999999-66666666-44444444----------------------------------
    E|-7777777777777777----------22222222----------------------------------…
  • Drop D Tuning + 1/2 step down 
    
    INTRO (Both Guitars, 2nd Guitar waits then comes in) 
    eb|-------------------------------------------------------------------------- 
    Bb|--------------------------------------------------------------------------…
  • C                     C-open               F               C  
    This may never start. We could fall apart. And I'd be your memory.
    C                        C-open              F             C  
    Lost your sense of fear.…
  • Guitar 1
    Tune to C
                                                         
    D||------------------||------------------------------|
    A||------------------||------------------------------|
    F||------------------||*-----------------------------|
    C||------------------||*--0--0--0--0--0-0-0-0-0--0-0-|
    G||------------------||---0--0--0--0--0-0-0-0-0--0-0-|
    C||------------------||---0--0--0--0--0-0-0-0-0--0-0-|…
Наверх