Аккорды «Fly Project»

Fly Project
Fly Project - одна из самых успешных танцевальных групп Румынии. Она появилась в 2005 году, когда два приятеля Tudor Ionescu и Dan Denes пришли к мнению, что у них похожие звуковые вкусы и решили назвать новую группу "Fly Project". Они начали с песни "Raisa", которая стала хитом 2005 года. В том же году вышел и дебютный альбом. К настоящему моменту Fly Project дали свыше 2000 концертов, получили десятки наград, а в 2008 году стали номинантами такой престижной премии как MTV… Читать полностью... Fly Project - одна из самых успешных танцевальных групп Румынии. Она появилась в 2005 году, когда два приятеля Tudor Ionescu и Dan Denes пришли к мнению, что у них похожие звуковые вкусы и решили назвать новую группу "Fly Project". Они начали с песни "Raisa", которая стала хитом 2005 года. В том же году вышел и дебютный альбом. К настоящему моменту Fly Project дали свыше 2000 концертов, получили десятки наград, а в 2008 году стали номинантами такой престижной премии как MTV European Music Awards и даже отечественной Russian Music Awards. Скрыть...
Популярные аккорды Fly Project:
алфавиту | просмотрам | случайно
  • Standard Tuning
    
    
    E------------------------------------------------|
    B--12/13-13-12-12-12/13------12/13--12-12-12/13--|
    G------------------------------------------------|
    D------------------------------------------------|
    A------------------------------------------------|
    E------------------------------------------------|
    
    E--------------------------------15-13-12--------|
    B--12/13--12-12-12/13----------------------13----|
    G----------------------12-12-12------------------|
    D------------------------------------------------|
    A------------------------------------------------|
    E------------------------------------------------|
    
    E------------------------------------------------|
    B--12/13-13-12-12-12/13------12/13--12-12-12/13--|
    G------------------------------------------------|
    D------------------------------------------------|
    A------------------------------------------------|
    E------------------------------------------------|
    
    E------------------------------------------------|
    B--12/13--12-12-12/13----------------------------|
    G----------------------10------------------------|
    D------------------------------------------------|
    A------------------------------------------------|
    E------------------------------------------------|…
  • Fm                              C#
    I remember your name crying in a rain
             G#                D#   C7
    When you left and close my door
       Fm                     C#
    I remember myself in my emptiness
            G#…
  • G#m
    I'll never see your smile again
    C#m
    You'll never be my friend
                    E                   F#
    Sailin' on the seas hiding in the trees
                  G#m
    Cryin' on my knees
     
    I'll never see your smile again
    You'll…
Наверх