Аккорды «Flybanger»

Flybanger
Flybanger was a Canadian metal band. Once known as Jar, they released 2 CDs under that name before releasing a 5 track EP titled "Outlived" as well as their major label debut "Headtrip To Nowhere" as Flybanger through Sony Music in 2001. The band has since broken up. The singles released from "Headtrip To Nowhere" were "Cavalry", "Radical" And "Blind World". "Blind World" was also featured on the soundtrack for the major motion picture Dracula 2000 alongside other major acts like Powerman 5000… Читать полностью... Flybanger was a Canadian metal band. Once known as Jar, they released 2 CDs under that name before releasing a 5 track EP titled "Outlived" as well as their major label debut "Headtrip To Nowhere" as Flybanger through Sony Music in 2001. The band has since broken up. The singles released from "Headtrip To Nowhere" were "Cavalry", "Radical" And "Blind World". "Blind World" was also featured on the soundtrack for the major motion picture Dracula 2000 alongside other major acts like Powerman 5000 , Disturbed, Pantera, Slayer and System Of A Down . In 2005, band members Rob Wade (Drums) and Garth Allen (Vocals) joined Kill Rhythm, a band started by Rob Thiessen formerly of Noise Therapy. In March 2009, following the breakup of Kill Rhythm, both Rob Wade and Garth Allen turned their focus to the Heavy Acoustic Rock project Thick Of It. As of August 2010, Jar is now back to work and are gearing up for their first reunion show in late October. The band is keeping fans in the look via their Facebook fan page @ http://www.facebook.com/pages/JAR/385980532616 and have, as well, announced the setlist for the upcoming show. Vancouver based hardrock act Flybanger released 2 independent albums under the bandname Jar in the late 90's,then they renamed to Flybanger and released the EP "Outlived" in 2000. The band signed to Columbia records and their only major album "Headtrip to nowhere" came out in 2001,a solid effort that might not be groundbreaking but they rock hard with vocalist Garth who sounds a bit like David Draiman of Disturbed. We're talking numetal with postgrunge tendencies and the picky one might find a few filler tracks but if we just look at the majority of the album - it rocks! The band was dropped and changed name back to Jarr for yet another EP in 2002 before they split up. .. .. Members: Garth Allen - Vocals Bryan Fratesi - Guitar Tom MacDonald - Bass, Vocals Rob Wade - Drums, Percussion Chris Smith - Bass Discography (As Flybanger): Outlived [EP] (Gotham Records - 2000) Headtrip to Nowhere (Columbia Records - 2001) Record Label: Columbia Records Скрыть...
Популярные аккорды Flybanger:
алфавиту | просмотрам | случайно
  • NOTE: It's the same version of the song on each album it's just the one on knott 
          skull is when they were known as JAR.
    NOTE: Tune to Drop D
    NOTE: * = strum 8x
    
    Intro/Chorus
    B|--------------3-----------------------3---3---
    G|----------------2----------7----------2---2---
    D|-2-----2-2-0-------0-0-5-----5--5-5-0---0-----
    A|-2-----2-2-0-------0-0-5--------5-5-0---------
    D|-2-----2-2-0-------0-0-5--------5-5-0---------
    
    Intro/Chorus…
  • NOTE: Tune to Drop C (C G C F A D)
    NOTE: * = strum 8x
    
    Jazz Intro (clean)
    D|---7--7--6------7-7--7--6---8h10p8----
    A|---6--6--5------6-6--6--5---8---------
    F|---7--7--6------7-7--7--6---8---------
    C|-5-5--5--4----5-5-5--5--4-------------…
  • Dropped D tuning
    
    Verse (palm muted)
    e---------------------------------------------------------
    B---------------------------------------------------------
    G---------------------------------------------------------
    D---------------------------------------------------------
    A---------------------------------------------------------
    D--1p0--0--1p0--0--1p0--0--1p0--0--1p0--1p0---------------
    
    Chorus
    e---------------------------------------------------------
    B---------------------------------------------------------
    G---------------------------------------------------------
    D--3--5--0--0--5p0---3--5--0--0--5p0---3--5--0--0--5p0----
    A--3--5--0--0--5p0---3--5--0--0--5p0---3--5--0--0--5p0----
    D--3--5--0--0--5p0---3--5--0--0--5p0---3--5--0--0--5p0----
    
    (continued)
    e---------------------------------------------------------
    B---------------------------------------------------------
    G---------------------------------------------------------
    D--6--6--6--0--3------------------------------------------
    A--6--6--6--0--3------------------------------------------
    D--6--6--6--0--3------------------------------------------
    
    Riff…
  • Dropped D tuning
    
    Riff 1 (palm muted)
    e------------------------------------------------------------
    B------------------------------------------------------------
    G------------------------------------------------------------
    D------------------------------------------------------------
    A--5--5-5--5-5--5-5-5--5--5-5--5--5-5--5-5--5-5-5--5--5-5----
    D--0--0-0--0-0--0-0-0--0--0-0--0--0-0--0-0--0-0-0--0--0-0----
    
    Riff…
  • Dropped D
    
    Intro 
    e----------------------------------------------------------
    B----------------------------------------------------------
    G----------------------------------------------------------
    D--6--x--6--x--0--3----------------------------------------
    A--6--x--6--x--0--3----------------------------------------
    D--6--x--6--x--0--3----------------------------------------
    
    Verse
    e----------------------------------------------------------
    B----------------------------------------------------------
    G----------------------------------------------------------
    D--0--0-0-0--1-2-3---0--0-0-0--1-2-3-----------------------
    A--0--0-0-0--1-2-3---0--0-0-0--1-2-3-----------------------
    D--0--0-0-0--1-2-3---0--0-0-0--1-2-3-----------------------
    
    Fill…
  • NOTE: Tune to Drop D (D A D G B E)
    
    Intro
    D|-----10----8----------7----5-----
    D|-/8------8---8--5--5---5----5--
    
    Intro (cont.)
    D|--------3----1--------0---0-----|
    A|--------------------0---0---0---|
    D|-1--1----1----1--0-------------|
    
    Intro…
  • Dropped D and tuned down a step
    
    Intro                                   end on
    d-----------------------------------------|-----------------
    A-----------------------------------------|-----------------
    F-----------------------------------------|-----------------
    C-----------------------------------------|-----------------
    G--3-5-5-5--3-5-5--3-5-5--3-5-5--3-5-5-5--|-----------------
    C-----------------------------------------|--3^-------------
    
    Verse…
  • NOTE: Tune down to Drop D (D A D G B E)
    NOTE: This is when they were known as Jar.
    NOTE: * = strum 8x
    
    Fill 1/Pre-Chorus/Interlude (PM ALL)
    D|-0-3-4-5^--(5)-3-0-|-%-|-%-|-0-3-0--3-3-3-0-|
    A|-0-3-4-5^--(5)-3-0-|-%-|-%-|-0-3-0--3-3-3-0-|
    D|-0-3-4-5^--(5)-3-0-|-%-|-%-|-0-3-0--3-3-3-0-|…
  • Dropped D
    
    Riff
    e---------------------------------------------------------
    B---------------------------------------------------------
    G---------------------------------------------------------
    D--0--3-5-5/65-3-0--0--3-5-5/65-3-0--0--3-5-5/65-3-0---
    A--0--3-5-5/65-3-0--0--3-5-5/65-3-0--0--3-5-5/65-3-0---
    D--0--3-5-5/65-3-0--0--3-5-5/65-3-0--0--3-5-5/65-3-0---
    
    (continued)
    e---------------------------------------------------------
    B---------------------------------------------------------
    G---------------------------------------------------------
    D--0-3-0--3-3-3--0----------------------------------------
    A--0-3-0--3-3-3--0----------------------------------------
    D--0-3-0--3-3-3--0----------------------------------------
    
    Verse
    e--12---10------12-12-10-----10--10--10--10--10--10--10---
    B--12---10------12-12-10-----10--10--10--10--10--10--10---
    G--12---10------12-12-10-----10--10--10--10--10--10--10---
    D---------------------------------------------------------
    A---------------------------------------------------------
    D---------------------------------------------------------
    
    Fill
    e---------------------------------------------------------
    B---------------------------------------------------------
    G---------------------------------------------------------
    D--12m-11m-10m-8------------------------------------------
    A--12m-11m-10m-8------------------------------------------
    D--12m-11m-10m-8------------------------------------------
    
    Chorus
    e---------------------------------------------------------
    B---------------------------------------------------------
    G---------------------------------------------------------
    D--8-8-8-8-8-8-8-8--10-10-10-10--12-12-12-12--5-5-5-5-5---
    A--8-8-8-8-8-8-8-8--10-10-10-10--12-12-12-12--5-5-5-5-5---
    D--8-8-8-8-8-8-8-8--10-10-10-10--12-12-12-12--5-5-5-5-5---
    ("She…
Наверх