Аккорды «Fm Static»

Fm Static
Сайд-проект участников известной рок-группы Thousand Foot Krutch Тревора МакНивана (Trevor McNevan) и Стива Августина (Steve Augustine), играющая мелодичный лёгкий рок в стиле поп-панк. Группа появилась в результате того, что Тревор писал песни неподходящие по формату для тяжёлых TFK. Состав: Тревор МакНиван (Trevor McNevan) - вокал, гитара; Стив Августин (Steve Augustine) - барабаны; Бывшие Участники: Джон Баннер (John Bunner) - гитара, (2003); Джереми Смит (Jeremy Smith) - гитара, (2004-2005); Джастин… Читать полностью... Сайд-проект участников известной рок-группы Thousand Foot Krutch Тревора МакНивана (Trevor McNevan) и Стива Августина (Steve Augustine), играющая мелодичный лёгкий рок в стиле поп-панк. Группа появилась в результате того, что Тревор писал песни неподходящие по формату для тяжёлых TFK. Состав: Тревор МакНиван (Trevor McNevan) - вокал, гитара; Стив Августин (Steve Augustine) - барабаны; Бывшие Участники: Джон Баннер (John Bunner) - гитара, (2003); Джереми Смит (Jeremy Smith) - гитара, (2004-2005); Джастин Смит (Justin Smith) - бас-гитара, (2003-2005). Дискография: "What Are You Waiting For?" - 2003, Tooth & Nail records; "Critically Ashamed" - 2006, Tooth & Nail records. "Dear Diary" - 2009, Tooth & Nail records. "My Brain Says STOP, But My Heart Says GO" - 2011 Скрыть...
Популярные аккорды Fm Static:
алфавиту | просмотрам | случайно
  • A          E  
    Dear god I wrote this letter,  
     F#m               D  
    to put my thoughts on paper, 
          A               E  
    Sometimes life seems like a criminal, 
      F#m                D  
    Without a well planned…
  • Intro
    
    --------------------------------------------------------
    --------------------------------------------------------
    --------------------------------------------------------
    0-0-4-0-4/7-7-9-7--0-4-0-4/5-5-4-4----------------------
    --------------------------------------------------------
    --------------------------------------------------------
    
    --------------------------------------------------------
    --------------------------------------------------------
    --------------------------------------------------------
    0-0-4-0-4/7-7-9-7--0-4-0-4/5-4-4/5-4--------------------
    --------------------------------------------------------
    --------------------------------------------------------
    
    
    (REPEAT)
    
    Verse/Chorus
    
    I…
  • Riff 1
    
    e|---------------------------------------------------------------------------|
    B|---------------------------------------------------------------------------|
    G|-------5--6----------------------------------------------------------------|
    D|----6--5--6--5-------------------------------------------------------------|
    A|----6--3--4--5-------------------------------------------------------------|
    E|----4--------3-------------------------------------------------------------|
    
    Riff…
  • Intro-
      F#  Bsus2  Ebm  C#  F#
    
      Intro Tab-
      E|------------------------------------|
      B|------------------------------------|
      G|--11---------------------11--10-----|
      D|------11---11/13---6/8-----------11-|
      A|------------------------------------|…
  • Capo: none or 1
    
    Verse 1:
    
    C
       I looked at myself
    
    G
      And never felt so small
    
    Am
      As walked down the hall
    
    D                   G5       C
      The first day of junior high
    
                          G
    I lip…
  • Tuning: Standard
    
    Intro
    |---------------------------------||
    |---------------------------------||
    |-----1-------1------1-------2----||
    |---2---2---2---2--2---2---2---2--|| 6X
    |---------0-----------------------||
    |-0---------------0------2--------||
    
    Verse/Pre-Chorus
    |-------------------------||
    |-------------------------||
    |-------4~-----6~---------||
    |-2~----4~-----6~-----7~--||…
  • Verse/Chorus: G-D-Am-F
    Refrain: Am-F
    
    Verse:
    G
    She's got this picture in her head of leaving
    D
    Feels like there's nothing left, for no good reason
    Am
    How could he hit her, she's wasn't born a quitter
    F
    And she…
  • Chords are pretty easy.
    
    Palm muted Chords:
    
    Bm                    F#m
    You're the next big thing
    Gm             E
    The next big thing
                          Bm        F#m
    They're gonna wanna shake your hand…
  • h=hammer on
    p=pull off
    /=slide down
    
    
    Intro:
    E------------------------------------------------------------------|
    B------------------------------------------------------------------|
    G----------2h3-2p0-5---5---3p2h3/0---3---3---3h5-3/2-3---3-3-3p2p0-|
    D--3---3-----------5---5-------------3---3-----------3---3---------|
    A--3---3-----------3---3-------------1---1-----------1---1---------|
    E--1---1-----------------------------------------------------------|x2
    
    Verse1a:
    E----------1------------------------------------------------------|
    B------------------------------5----------------------------------|
    G--------------------------4---------------3---------------3------|
    D--------------3-------3---------------3-------3-------3-------3--|
    A------3-----------3---------------1---------------1--------------|
    E--1--------------------------------------------------------------|x2
    
    Verse1b:
    slightly…
  • Standard Tuning
    E A G D B E
    
    Snow Miser By Fm Static
    
    
    G          Em
    I'm Mister White Christmas
    G          Em
    
    I'm Mister Snow
    G          E7
    
    I'm Mister Icicle
    A7         D7
    
    I'm Mister Ten Below
    
    B7…
  • Intro:
    
    Guitar 1:
    
    (distortion)
     e|--------------------|
     B|--------------------|
     G|--------------------| just one time
     D|--7---0---4---0--2--|
     A|--7---0---4---0--2--|
     D|--7---0---4---0--2--|
    
    Guitar 2:
    
    (distortion)…
  • C                                     
    this song's for the emo kids 
              F         
    with the punk-rock, rockabilly scream lids  
             C  
    and the crank-rock, hip-hop, and metal queens  
          G  
    who still…
  • intro/verse?pre-chorus:
    
    G|---------------------------------|
    D|---------------------------------|
    A|---------------------------------|
    E|------1-33--1--33--1-3-5-1-------|
    B|--33-----------------------------|
    
    
    G|---------------------------------|
    D|---------------------------------|
    A|---------------------------5-----|
    E|------1-33--1--33--1-5-3---------|
    B|--33-----------------------------|
    
    
    G|---------------------------------|
    D|---------------------------------|
    A|---------------------------------|
    E|------1-33--1--33--1-3-5-3-------|
    B|--3------------------------------|
    
    
    G|---------------------------------|
    D|---------------------------------|
    A|---------------------------------|
    E|------1-33--1--33--(PAUSE)-------|
    B|--3------------------------------|
    
    chorus:
    G|----------------------------------------|
    D|----------------------------------------|
    A|----------------------------------------|
    E|-----------1--1-1--1--1-1--3-33-3-33----|
    B|-3-33-3-33------------------------------|
    
    G|---------------------------------|
    D|---------------------------------|
    A|------------3---5----------------|…
  • Tuning: Drop D
    
    Intro/Verse
    D|-------------------------------------------------------------------------|
    A|-------------------------------------------------------------------------|
    D|-9~----8~----9~----8~------------------------------(x2)------------------|
    
    Prechorus/Chorus
    d|-9-4-2-4-----------------------------------------------------------------|
    a|-9-4-2-4-----------------------------------------------------------------|
    D|-9-4-2-4-----------------------------------------------------------------|
    Y'all…
  • They often play the same chords:
    
    E---------------|
    B---------------|
    G--3-----8--10--|
    D--3--3--8--10--|
    A--1--3--6--8---|
    E-----1---------|
    
    Bb - F5 - Eb - F5 (higher one)
            (D#)
    
    Doot do doo do doo do…
  • I.
    (pluck in diz 1st stanza)
    E    B                C#m             A  
    I've tried not to let anyone in until now
    E       B             C#m   A
    I guess conversations never allow
                  E                B…
  • Intro: C  Am  F  G  
      
    Verse:
     C  
    I'm feelin' trapped inside this house,  
     
    The words I want, they won't come out,  
     Am  
    Feel like a ghost inside these walls,  
     G  
    It's like no one sees me at all 
     
     C…
  • Capo on the first fret.
    
    Intro:
    
    e|--------0-----------0-----------0------------0--------0-----------0-----|
    B|-----3-----3-----3-----3-----3-----3~-----3--------3-----3-----3-----3--|
    G|--2-----------2-----------0------------0--------2-----------2-----------|
    D|------------------------------------------------------------------------|
    A|------------------------------------------------------------------------|
    E|------------------------------------------------------------------------|
    
    e|--------2--3--2-----0---|
    B|-----3-----------3------|
    G|--0---------------------|
    D|------------------------|
    A|------------------------|
    E|------------------------|
    
    e|--------2-----------2-----------2-----3--2--0-----|
    B|-----3-----3-----3-----3-----3-----3-----------3--|
    G|--2-----------2-----------0-----------------------|
    D|--0-----------0-----------0-----------------------|
    A|--------------------------------------------------|
    E|--------------------------------------------------|
    
    e|--------2-----------2-----------2-----3--2--0-----|
    B|-----3-----3-----3-----3-----3-----3-----------3--|
    G|--2-----------2-----------0-----------------------|
    D|--0-----------0-----------0-----------------------|
    A|--------------------------------------------------|
    E|--------------------------------------------------|
    
    
    D…
  • Intro:  D  G  A  D
    Verse:
    G      A    D                                                                  
    You've been tryin' to get me open, caught out in the open, everyone is hoping
    G      A     D
    You'd give anything…
  • Main Riff used for intro/post-chorus and other parts of song
    e-------------------|
    b-------------------|
    g-3---3-------------|
    d-3-3-3-3-5-5-5-5-3-|  4x
    a-1-3-1-3-5-5-5-5-3-|
    e---1---1-3-3-3-3-1-|
    
    verse 1   palm…
  • Verse One
    G             D
    It was almost Christmas time, 
    G             C
    There I stood in another line 
    G                 A
    Trying to buy the last gift or two, 
    G                 D
    Not really in the Christmas mood.…
  • Intro: G Em C D
    Verse 1
    G                     D
    I used to draw you pictures
    Em         
    Back in grade school
    C
    You never could quite make them out
    G                         D
    But you said you thought they were cool
    Em
    We…
  • Tuning: Standard
    
    Verse 1:
    e|-----------------------------------------------|
    B|-----------------------------------------------|
    G|-----------------------------------------------|
    D|--------------77777777---44444444---99999999---|…
  • Key: C
    Standard Tuning
    
    Intro:
    C-G-Dm-F-Fm (2x)
    
    Verse I:
    
     C                      G
    This troubled heartache won't go away
       Dm                          F/Bb
    I think there might be something wrong with me…
  • Tuning: Standard.
    
    INTRO (Clean Guitar)     Repeat 4 Times
    
    e|-----------------------------------------------------------------------------|
    B|-----------------------------------------------------------------------------|
    G|-11-11-11-11-11-11-11-11--9--9--9--9--9--9--9--9-----------------------------|
    D|-11-11-11-11-11-11-11-11--9--9--9--9--9--9--9--9-----------------------------|
    A|--9--9--9--9--9--9--9--9---7--7--7--7--7--7--7--7----------------------------|
    E|-----------------------------------------------------------------------------|
    
    e|-----------------------------------------------------------------------------|
    B|-----------------------------------------------------------------------------|
    G|--12-12-12-12-12-12-12-12--7--7--7--7--7--7--7--7----------------------------|
    D|--12-12-12-12-12-12-12-12--7--7--7--7--7--7--7--7----------------------------|
    A|--10-10-10-10-10-10-10-10--5--5--5--5--5--5--5--5----------------------------|
    E|-----------------------------------------------------------------------------|
    
    Electric…
  • Tuning: E A D G B e
    
    Guitar I  (E A D G B e)
    Guitar II (E A D G B e)
    
    
    Intro: Guitar 2
    verse
    e||-------------------------||
    B||-------------------------||
    G||-----7-----------5-------||
    D||---7-------7---5-------5-||…
  • INTRO: C F E D
    
    C                              
    You light up my sky 
    F
    just like a firefly
    E                                    
    Your word's are more than just a 
    D
    passing breath
    C                          
    I…
  • /Intro/
    
    e|-------------------------------------|
    b|-------------------------------------|
    g|---------7-XX-7------------XXX-7-9-7-|
    d|-0-2-4-0-X-XX-X----0-2-4-0-XXX-X/X\X-|  (x2)
    a|-0-2-4-0-5-XX-5----0-2-4-0-XXX-5-7-5-|
    D|-0-2-4-0-----------0-2-4-0-XXX-------|
    
    
    /Verse/
    
    e|--------------------|
    b|--------------------|
    g|--------------------|
    d|-0-0--5-5--7-7--9-9-|…
  • Chords:  E5--A5--F#5--B5-A5 
    
    Each chord is played twice quickly, so it is played like this:
     E5-E5------A5-A5------F#5-F#5------B5-B5---A5
    
    The "A5" chord at the end is only played sometimes during the chorus as a…
  • Standard Tuning EADGBE
    
    C#       Bbm        F#               Ab
    Here we are, in the best years of our lives.
    With no way of knowing, when the 
    Whee'll stop spinning cause we don't
    Know where we're going...
    And here…
  • verse 1: G
    
    pre-chorus: C-G-D (2x)
    
    chorus: G-C-G-Dsus4
            G-C-G-D    (2x)
    
    verse 2: G
    
    bridge: G-C-D-G-C-Em-D (4x)
    
    lyrics:
    
    I have 2 brothers and a sister, and a mother,
    And a father who taught us that…
Наверх