Аккорды «Foreigner»

Foreigner
Foreigner — американский хард-рок-секстет, который был сформирован в 1976 году Миком Джонсом (прежде работавшим с Джорджем Харрисоном) и Ианом Макдональдом из King Crimson. Их первые шесть альбомов (1977—1984) стали мультиплатиновыми и в целом продавались в США лучше, чем записи их конкурентов из мира хард-рока. Группа продолжает существовать и по сей день, однако из первоначального состава в ней остался только Джонс. В феврале 1985 г. их проникновенный гимн любви «I Want to Know What Love Is»… Читать полностью... Foreigner — американский хард-рок-секстет, который был сформирован в 1976 году Миком Джонсом (прежде работавшим с Джорджем Харрисоном) и Ианом Макдональдом из King Crimson. Их первые шесть альбомов (1977—1984) стали мультиплатиновыми и в целом продавались в США лучше, чем записи их конкурентов из мира хард-рока. Группа продолжает существовать и по сей день, однако из первоначального состава в ней остался только Джонс. В феврале 1985 г. их проникновенный гимн любви «I Want to Know What Love Is» добрался до первой строчки в Billboard Hot 100. Другие крупные хиты, отметившиеся в лучшей десятке США, — «Feels Like the First Time» (1977), «Cold as Ice» (1977), «Hot Blooded» (1978), «Double Vision» (1978), «Urgent» (1981), «Waiting for a Girl Like You» (1981), «Say You Will» (1987), «I Don’t Want to Live without You» (1988). Группа получила свое название исходя из того факта, что ее первоначальный состав был интернациональным и это нашло отражение в их музыке. Мик Джонс (р. 27 декабря 1944, Лондон, Англия; гитара, вокал) основал проект в 1976 году, поиграв до этого в "Nero And The Gladiators" (имевшей два маленьких хита "Entry Of The Gladiators" и "In The Hall Of The Mountain King" в 1961-м). Остальное время в 60-х он был автором текстов и музыкальным директором французского певца Джонни Холидея. С ним же работал и экс-"гладиатор" Томми Браун, с которым Джонс записал несколько синглов и EP-шек. В начале 70-х Мик работал с экс-клавишником "Spooky tooth" Гэри Райтом в "Wonderwheel", а потом принимал участие в записи трех альбомов реанимированного "Spooky tooth". Поднабравшись музыкального опыта Джонс решил сколотить свою группу. Для этого он пригласил к себе следующих людей: Яна Макдоналда (р. 25 июня 1946, Лондон, Англия; гитара, клавишные, рожки, вокал, экс-"King crimson"), Лу Грэмма (Лу Грамматико, р. 2 мая 1950, Нью-Йорк, США; вокал), игравшего с "Black sheep" в начале 70-х, Денниса Эллиотта (р. 18 августа 1950, Лондон, Англия; ударные, экс-"If"), Эла Гринвуда (р. Нью-Йорк, США; клавишные) и Эдварда Гаглиарди (р. 13 февраля 1952, Нью-Йорк, США; бас). В 1977 году вышел первый альбом "Foreigner" и в опросе, проводимом журналом "Rollinge stone" коллектив получил звание лучшей новой группы. Диск сразу же поимел успех в Америке, поднявшись на 4 позицию в чартах "Billboard". Большинство материала на нем было написано Джонсом и Грэммом, включая такие классические треки как "Feels Like The First Time" (штатовский № 4 в марте 1977-го) и "Cold As Ice" (штатовский № 6 в июле 1977-го). Несмотря на то, что "Foreigner" дважды в 70-е годы выступали на редингском фестивале в Англии, в Америке они имели больший успех, где "Hot Blooded" (№ 3 в июле 1978-го) и "Double Vision" (№ 2 в сентябре 1978-го) разошлись миллионными тиражами. В 1979 году Гаглиарди сменил басист Рик Уиллс (Англия), ранее игравший в "King Crimson" и "Peter Frampton". Диск 1979 года стал известен скорее из-за его обложки, чем из-за музыкального содержания. В 1980-м из группы ушли Макдоналд и Гринвуд, основав проект "Spys". Следующий альбом "4", записанный с участием "гостей" Томаса Долби и Джуниора Уолкера продюсером Маттом Лэнджем, занял 4-ю строчку в штатовских хит-парадах и 5-ю в британских. Сопутствующий ему сингл "Waiting For A Girl Like You" на десять недель завис на второй позиции американских чартов, а также попал в десятку лучших в Англии. Музыка группы представляла собой в основном задумчивые мелодичные баллады. Популярность коллектива подтвердилась в декабре 1984 с выходом сингла "I Want To Know What Love Is", ставшим самым большим коммерческим успехом "Foreigner". Он возглавил хит-парады по обе стороны Атлантики. Тем временем "Agent Provocateur" возглавил английские альбомные чарты и стал номером 4 в Америке. В середине 80-х члены "Foreigner" занялись сольными проектами, и после успеха альбома 1987 года "Ready Or Not" Грэмма поползли слухи о расформировании группы. Но дело было не совсем так, поскольку вышел очередной диск банды "Inside information". Он, правда, оказался довольно слабым, хотя и сопровождался синглами "Say You Will" и "I Don't Want To Live Without You", попавшими в американский Топ 10. В 1989 году Грэмм успешно выступал со своим сольным проектом "Long Hard Look" , а в мае 1990-го ушел из "Foreigner" и основал "Shadow king". Но Джонс не стал так просто сдаваться и для записи "Unusual Heat" пригласил нового вокалиста, экс-участника "King Kobra" Джонни Эдвардса. В 1992-м Джонс и Грэмм воссоединились, несмотря на протесты Уиллса и Эллиотта. Состав "Foreigner" 1994 года включал в себя также бывшего коллегу Грэмма по "Black Sheep" и "Shadow King" басиста Брюса Таргона, клавишника Джеффа Якобса и ударника Марка Шулмана. В такой "конфигурации" в 1995 году группа выпустила диск "Mr Moonlight". Альбом имел умеренный успех, хотя и был сделан в типичной манере "Foreigner". На концертах их принимали тепло, а наибольшей популярностью пользовались песни "Cold As Ice", "Urgent" и "I Want To Know What Love Is". В последующие годы Грэмм лечился от мозговой опухоли, и поэтому группа возобновила работу в только в 1999-м. Скрыть...
Популярные аккорды Foreigner:
алфавиту | просмотрам | случайно
  • Intro: Em''D G''' C' Em''D Em''' 
    
    Verse:
    Em                 D      G   
    I've gotta take a little time
              C                   Em   D 
    A little time to think things over
    Em                D        G   
    I better…
  • 1st walk up:
    e---------|
    B---------|
    G---------|
    D---------|
    A---4-6---|
    E-7-------|
    
    2nd walk up:
    e---------|
    B---------|
    G---------|
    D---------|
    A---4-----|
    E-4---7---|
    
    Guitar Solo: (Gotta Love good ol' Mick)
    e-------------------------------------14-14/18-14------------|
    B-------------------------------9p7h9-------------16v-p14----|
    G-------------------6p4h6-8p6h8------------------------------|
    D-------------6p4h6------------------------------------------|
    A-------6p4h6------------------------------------------------|
    E-7p4h7------------------------------------------------------|
    
    e-18-12b14--------------|
    B----------16-14-16v----|
    G-----------------------|
    D-----------------------|
    A-----------------------|
    E-----------------------|
    
    e-------------------------------------7-7/11-11-9------------|
    B-------------------------------9p7h9-------------12-11v-----|
    G-------------------6p4h6-8p6h8------------------------------|
    D-------------6p4h6------------------------------------------|
    A-------6p4h6------------------------------------------------|
    E-7p4h7------------------------------------------------------|
    
    e-------------------------------14p12h14p12-18p16h18p16h18v--|
    B-12p11h12p11h12p11-16p14h16p14------------------------------|
    G------------------------------------------------------------|
    D------------------------------------------------------------|
    A------------------------------------------------------------|
    E------------------------------------------------------------|…
  • Intro: Am  C  F  F  x2
    
        Am               C                         F
    I remember the day. Seems so far away, when I walked into your life
            Am                          C                            F
    And the…
  • Intro - Played throughout the song
         A     G    F#   E  F# G           G
    e|----------------------------------------------|
    B|----------------------------------------------|
    G|----------------------------------------------|
    D|----7----5----4----3-2-5----------------------|
    A|----------------------------------------------|
    E|----------------------------------------------|
    
    Verse
    A
    Well…
  • Basically the chord progression is A  F#m  E.
    Most of the time, however, the F#m is played
    as a F#m7. The way the chords are played varies, I
    only sorted out the first verse.
     
    (Intro)
    A          F#m7      E…
  • Tuning: Standard (EADGBe)
    
    h  | hammer-on
    p  | pull-off
    b  | bend to the specified note
    r  | release bend to the specified note
    ~  | sustain (let ring)
    /  | slide up
    \  | slide down
    ph | pinch harmonic
    
    
    INTRO
    
    B…
  • INTRO
    
    Am              G/A                  Am              G/A
    
    |8---7---5---3---|-5---3---0-------|-8---7---5---3---|-5---3---0-------|
    |--0---0---0---3-|---3---3---1-3---|---0---0---0---3-|---3---3---1-3---|
    |----------------|---------------2-|-----------------|---------------2-|
    |----------------|-----------------|-----------------|-----------------|
    |----------------|-----------------|-----------------|-----------------|
    |----------------|-----------------|-----------------|-----------------|
    
    Am…
  • Hm G Em F#
       Hm         G       Em       F#
    Blinded by science, I'm on the run.
    Blinded by science, where do I belong?
    What's in the future, has it just begun?
    Blinded by science, I'm on the run.
       Hm…
  • INTRO: Db  Ebm  Gb  B     Db  Ebm  Gb   B
    
    
      Db         Ebm           B                                
      When I was young and the world belonged to me
      Db             Ebm        B 
      I thought that love meant pain…
  • Riff:
    E-----------------|
    B-----------------|
    G-----------------|
    D-----------------|
    A-8h10-7--8h10-7--|
    E-----------------|
    
    Chords: EADGBE
    Eb      x68888
    Db      x46666
    E       079999
    F#      244322 --or-- x 9 11 11 11…
  • Tuning: Standard
    
         A7sus4
    e|--------------------|---------------------|
    B|------3-----3-------|------3-----3--------|
    G|----------------0---|-----------------0---|
    D|----2-----2---------|----2-----2----------|
    A|--0-----0-----0-----|--0-----0-----0------|
    E|--------------------|---------------------|…
  • Introdução: (Fm) Bbm   Db Ab
                     Bbm   Db
    
    Ab               Bbm
    I see you in my dreams
                         Db
    You feel so close to me
            Ab              Bbm
    There's nowhere in this world…
  • INTRO: F  G  (3x)
    
    G C     G Am    G
    Luanne, Luanne
    F          C       G
    Why do you run and hide?
      C     G Am    G
    Luanne, Luanne
    F     C                G
    Don't keep your love inside
    
    
    C
    Wait around for you…
  • Intro-Am  Em  F  B  Em D C D Em
    
    B                     Em                      C          Am
    I stole a ride on a passing star not knowing where I was going 
         
         Em          D      Em    D
    how near of how far.
    
    B…
  • Tuning: Standard Tuning
    Capo: No Capo
    
    
    Intro
    Abm - B - F# - E
    
    
    Verse 1
    Abm
    So many times I've thought about
    B			  F#	       E
    What my life would be without you, without you
    
    
    Verse 2
    Abm
    It would be easier…
  • CAPO 1
    
    Dm                              Bb  
    Say you will, say you won't make up your mind tonight
    C                                  Dm
    Say you do, say you don't wanna be mine
    Dm                              Bb…
  • Tuning: Standard
    
    (Piano intro)
    
      verse 1.
    G|---------------------------------------------------------------------------|
    D|---------------------------------------------------------------------------|
    A|------------------------------------6---5-----------8--5-------------------|
    E|-11\----------------------------6-6---6-------------------6--9-------------|
    
    G|---------------------------------------------------------------------------|
    D|----------------------------------------------------6--3-------------------|
    A|------------------------------------6---5-----------------5----------------|
    E|-11\----------------------------6-6---6----------------------4-------------|
    
    G|---------------------------------------------------------------------------|
    D|---------------------------------------------------------------------------|
    A|------------------------------------6---5-----------8--5-------------------|
    E|-11\----------------------------6-6---6-------------------6--9-------------|
    
    G|---------------------------------------------------------------------------|
    D|----------------------------------------------------3--0-------------------|
    A|------------------------------------6---5-----------------1--0-------------|
    E|-11\----------------------------6-6---6------------------------------------|…
  • Am    G    Am    G - play about four times
    Carrying on into the verses . . .
    Am        G      Am          G
    The days and nights you sit around wondering
    Am    G    Am    G
    where can she be
    Am           G        Am…
  • B        F#                   G#m      F#   
     I never knew a man could be so lonely
    E                B             C#m    E
     That life could treat a man so wrong
    B            F#                   G#m
     But when the odds…
  • Intro       ect            ect  Part1  ect
    G---------------|---------------|--------------------|
    D---------------|---------------|--------------------|
    A---------------|-5-5-5-5-------|--------------0-1-2-|
    E---3-3-3-3-----|---------------|-3-3-3-3------------|…
  • Intro, all on  Am
    
    Am
    It's night, again - time for my mind to go wandering
    Am
    Off on a journey, through space and time, in search of a face I can
    never find
             F           G      Am
    So I close my eyes and look…
  • Intro riff as follows:
    Em    C    Em    C
    Em    C
    Em    D    C    D
    Em    D    C    D
    
    Verse 1:
    Em
    In your book of broken hearts
    C
    You had my name now the story starts
    Em                C
    We'll never be the same…
  • This is the intro
    
    ----------------------------5-5-------------------------------5-5---|
    ---------------5--7--7-7----7-7-5----------------5--7--7-7----7-7-5-|
    -6--6-6----6-6-5--7--7-7----7-7-5--6--6-6----6-6-5--7--7-7----7-7-5-|
    -7--7-7----7-7-5--7--7-7----7-7-5--7--7-7----7-7-5--7--7-7----7-7-5-|
    -7--7-7----7-7-3--5--5-5--------3--7--7-7----7-7-3--5--5-5--------3-|
    -5--5-5----5-5---------------------5--5-5----5-5--------------------|…
  • drop D tuning
    
    Verse:
    Repeat this till you get to the bridge...
    E|-------0--------|-------0--------|-------0--------|-------0--------|
    B|---4-------4----|---4-------4----|---4-------4----|---4-------4----|
    G|----------------|----------------|----------------|----------------|
    D|-7---7---------7|-6---6---------6|-5---5---------5|-4---4---------4|
    A|----------------|----------------|----------------|----------------|
    D|----------------|----------------|----------------|----------------|
    
    Bridge:
    E|----------------|----------------|----------------|
    B|----------------|----------------|----------------|
    G|----------------|----------------|----------------|
    D|-4-4-4-4-4-4-4-4|-4-4-4-4-4-4-4-4|-4-4-4-2-2---6--|…
  • CHORDS:                 EADGBe
    
    Bsus2                  |x04422|
    (C#sus2)? weird chord  |xx6622|
    E major                |0221xx|
    A major                |x02220|
    B major                |x24442|  
    D major…
  • Tuning: Standard
    
     intro                                  full band in      
    G|---------------------------------------------------------------------------|
    D|---------------------------------------------------------------------------|
    A|---------------------------------------------------------------------------|
    E|--------------------------------------3-----5-----0----------3-----5-------|
    
    G|---------------------------------------------------------------------------|
    D|-------------------------------------------------------------5---3---------|
    A|----------------------------------2-----------------3--------------5-3-----|
    E|-0-0-----0-0-----0-0-----0-0--0-3-----3~--------3-6---5~---------------6---|…
  • Introdução: Db Eb Bbm Eb
                Db Eb Bb Eb
    
    Ab        Eb          Db                  Eb
      In this world, life can be hard on a sensitive girl
    Db            Eb               Ab              Eb
      Who do you turn…
  • --|-----------------|-------------------|-0-0-0-0-0-|-0-0-0-0-0-0-------------
    --|-----------------|-------------------|-3-1-1-1-1-|-3-3-1-1-1-1-------------
    --|5-5--4-10-10-9---|-12-12-11--11-11-12|-0-x-x-0-0-|-0-0-x-x-0-0-------------
    --|5-5--5-10-10-10--|-12-12-12--12-12-12|-0-3-3-x-x-|-0-0-3-3-x-x-------------
    --|3-3--3-8--8--8---|-10-10-10--10-10-10|-3-0-0-3-3-|-3-0-0-0-3-3-------------
    -3|-----------------|0---------0--------|-0-0-0-0-0-|-0-0-0-0-0-0-------------…
  • A                                      F#m
    He drives a 57 coupe walks with a stoop swears James Dean isnt dead
         A                                             F#m
    hes a dedicated rocker a real headknocker dont look…
  • Intro/Main Riff:
      E5 and Low E bass throughout
    [E---------------------------------------0------
    B-----0-1-2-3--0-1-2-3---3-3-3---3-3-3---------
    G----------------------------------------------
    D--2-------------------------------------------
    A--2-------------------------------------------
    E--0-------------------------------------------]…
  • Intro: D    Dsus    D (let ring into lyrics)
    
                           Em
    I have waited oh, so long
                             D             Dsus4   D
    Please don't tell me baby I was wrong
                      Em
    Dreaming…
  • Introdução: C#  G# C#
       (2X)     F# G#
    
    C#       G#       C#
    Time, our precious time
    F#       G#
    In the beginning
    F#            G#
    Your heart and mine
                C#
    I thought our love
       G#       C#
    Was one…
  • CAPO: 4th Fret
    
    INTRO: C G Am  (4x)
    
    C                     G        Am
    Some people stay all alone and hide
    C                       G        Am
    They don't even want to know the reason why
    C…
Наверх