Аккорды «Fort Minor»

Fort Minor
Как можно выбраться из тени группы, которая продала больше 40 000 000 своих альбомов, тени плотной и размером со стадион? Если Вы - Майк Шинода из Linkin Park, то ответ прост: излучайте свой собственный свет. Шинода — это половина вокального состава мультиплатинового коллектива Linkin Park. Он в паре с Честером Беннингтоном изрыгает повальные хип-хоп читки в связке с не менее интенсивным альтернативным роком. От альбома к альбому группа заслужила репутацию экспериментаторов, пионеров всего нового,… Читать полностью... Как можно выбраться из тени группы, которая продала больше 40 000 000 своих альбомов, тени плотной и размером со стадион? Если Вы - Майк Шинода из Linkin Park, то ответ прост: излучайте свой собственный свет. Шинода — это половина вокального состава мультиплатинового коллектива Linkin Park. Он в паре с Честером Беннингтоном изрыгает повальные хип-хоп читки в связке с не менее интенсивным альтернативным роком. От альбома к альбому группа заслужила репутацию экспериментаторов, пионеров всего нового, непохожего. Своим первым сольным шагом Шинода хочет показать, что он готов представлять слушателям всё новое и новое. Шинодовские рэп-корни всё время должны были переплетаться с другими элементами — до настоящего момента. Но музыка группы Fort Minor представляет из себя уникальный, нисколько не разбавленный, чистый до последней ноты хип-хоп. Разнообразие тематики песен, стилей и настроений, созданных Майком, делает этот сольный проект намного грандиознее. Дебютный альбом Fort Minor «The Rising Tied», которого с нетерпением ждали многие поклонники Майка Шиноды, был выпущен 22-го ноября 2005 года под лейблом Machine Shop Recordings/ Warner Bros. Главным продюсером альбома выступил рэпер Jay-Z, который к тому времени уже записал mash-альбом «Collision Course» вместе с Linkin Park. Майк Шинода сам написал каждую песню "The Rising Tied" и за время записи альбома успел сыграть буквально на всех инструментах. Выбор имени "Fort Minor" отражает взаимодействие между противоположностями: нечто большое и сильное против маленького и слабого (или мрачного в музыкальном плане). Название альбома также является игрой слов. По словам Шиноды, все музыканты,которых пригласили принять участие в записи альбома, внесли свою лепту в создание музыкального звучания; это и рэп-коллектив Styles of Beyond, и Холли Брук, и такие андерграундные рэпперы, как Common, John Legend, Kenna, Black Thought (из группы The Roots). Майк — одно из стёклышек мозаики Linkin Park. Но желание создавать песни, соотносившие Шиноду с его хип-хоп корнями, позволило ему сначала написать, а потом и записать ряд хип-хоп песен. Поскольку песни мало-помалу начали срастаться в полноценный альбом, Майк захотел сделать его органичным, живым, создавая свои собственные сэмплы и биты в тесном переплетении с «живыми» инструментами. В звучании «The Rising Tied» есть фирменное звучание Linkin Park, но оно более личное, целиком раскрывающее душу одного человека. Cвое детище "Fort Minor", Майк не убрал в долгий ящик, на новом альбоме ребят, он обещает записать парочку песен в стиле хип-хоп. Скрыть...
Популярные аккорды Fort Minor:
алфавиту | просмотрам | случайно
  • e----0---0---0---0---0---0---0---0-
    B--9---9---9---9---7---7---7---7---
    G--------------------------------------
    D--------------------------------------
    A--------------------------------------
    E--------------------------------------…
  • CHORUS:
      Cm                             Bb 
    I guess that this is where we've come to
                 F/A
    If you don't want to
                   Ab        G7  
    Then you don't have to believe me
        Cm…
  • Standard Tuning - No Capo
    
       C#m E   G#m
    e|-4---0---4-|
    B|-5---0---4-|
    G|-6---1---4-|
    D|-6---2---6-|
    A|-4---2---6-|
    E|-x---0---4-|
    
    Intro:
    E G#m C#m C#m
    
    E
     Yeah it's been a long minute
     G#m
     Let me break…
  • intro:
    |------------------------------------|
    |-55555555-------3--3--3-3-3-3-------|
    |-77777777-------0--0--2-0-0-2-------|
    |-77777777-------x--x--0-x-x-0-------|
    |-00000000-------3--2--0-3-2-0-------|
    |------------------------------------|
    
    |----------------------------3--------------------|
    |----------------------------3---------3-----------
    |-----9---------7------------0---------5----------|
    |-----9---------7------------2---------5----------|
    |-----7---------5------------0---------0----------|
    |-----0---------0---------------------------------|
    
    
    verse:
    
    |------------------------------------|
    |---3--3--3-3-3-3--------------------|
    |---0--0--2-0-0-2--------------------|
    |---x--x--0-x-x-0--------------------|
    |---3--2--0-3-2-0--------------------|
    |------------------------------------|
    
    |----------------------------3--------------------|
    |----------------------------3---------3----------|
    |-----9---------7------------0---------5----------|
    |-----9---------7------------2---------5----------|
    |-----7---------5------------0---------0----------|
    |-----0---------0---------------------------------|…
  • This riff goes throughout the entire song.
    
    piano:
    e-----14-13-14-15-14-13-14------14-13-14-15-17-15-14-*
    B--12------------------------12----------------------*
    G----------------------------------------------------*
    D----------------------------------------------------*
    A----------------------------------------------------*
    E----------------------------------------------------*
    
    And…
  • Tuning: Normal
    
    Intro:
    e|--------------|------------------------|
    B|--------------|------------------------|
    G|--------------|------------------------| 
    D|--7-7-5-------|-----5-----7------------|    x2
    A|--------7-----|-5h7---5h7--------------|
    E|----------8/5-|------------------------|
    
    Chorus:
    e|------------------------------|------------------------|
    B|------------------------------|------------------------|
    G|------------------------------|------------------------|
    D|--7-7-5-----------------------|-----5-----7---7-----7--|
    A|--------7---------------------|-5h7---5h7---4---5-7----|
    E|----------8/5-5-5-5-5-5-5-5-5-|------------------------|…
  • Играются 3 аккорда (баррэ), боем. На каждый 2 проигрыш 
    аккорды G# Bb  нужно чтобы звучали дольше.
    
    Cm Cm G# Bb
    Cm Cm G# Bb (полседние 2 аккорда должны звучать дольше)
    
    You ready?! Lets go!
    Yeah, for those of you…
  • intro:
    |--------------------------|
    |--------------------------|
    |--------------------------| x 3
    |--------------------------|
    |--------------------------|
    |-5--8--8--8-8-8--0-3------|
    
    
    |--------------------------|
    |--------------------------|
    |--------------------------|…
  • Hook:
    
    |--------------15----14-----|--------------15----14-----|
    |-----15--------------------|-----15--------------------|
    |--------14-12----14----14--|--------14-12----14----14--|
    |--12-----------------------|--12-----------------------|
    |---------------------------|---------------------------|
    |---------------------------|---------------------------|
    
    |--------------15----14-----|--------------15----14-----|
    |-----15--------------------|-----15--------------------|
    |--------14-12----14----14--|--------14-12----14----14--|
    |--12-----------------------|--12-----------------------|
    |---------------------------|---------------------------|
    |---------------------------|---------------------------|…
  • Easy one:
    
    |-------------------------------------------------|
    |-------------------------------------------------|
    |-------------------------------------------------|
    |-----5---5---5-8-8-8-8-8-------------------------|
    |-----3---3---3-6-6-6-6-6--6---6---6-8-8-8-5------|
    |--------------------------4---4---4-6-6-6-3------|…
  • The tuning is drop c# but you just have to tune down the first string (c#-a-d-g-h-e).
    
    e |------------|
    B |------------|
    G |------------|
    D |------------|
    A |------------|
    C#|222222-3-0-2|
    
Наверх