Аккорды «Forty Foot Echo»

Forty Foot Echo
Forty Foot Echo is a five-man rock band from Canada, who released their self-titled debut album in 2003. Murray Yates, formerly of the band Templar, is the band's lead vocals, with Ryan Chamberlain as rhythm guitarist, Izzy Allen as bassist, Dayvid Swart on the drums and Shaun McDowell playing lead guitar. Shortly after the conclusion of their first tour, a complicated series of events caused the band to become estranged from Hollywood Records, which eventually led to a different line-up for… Читать полностью... Forty Foot Echo is a five-man rock band from Canada, who released their self-titled debut album in 2003. Murray Yates, formerly of the band Templar, is the band's lead vocals, with Ryan Chamberlain as rhythm guitarist, Izzy Allen as bassist, Dayvid Swart on the drums and Shaun McDowell playing lead guitar. Shortly after the conclusion of their first tour, a complicated series of events caused the band to become estranged from Hollywood Records, which eventually led to a different line-up for their second album. Only Murray Yates remained on board, and was the one who reformed the band with the help of Shaun McDowell. "Brand New Day", the band's most successful song from their debut album, was featured on the soundtrack of the 2003 version of Freaky Friday which earned the band a Canadian gold record. They released their second album (titled "Aftershock") in late 2006, on their new record label, Echoman Music. Currently, there is no date specified for a U.S. release. The song "Closer" was the first single off the album, which was released across Canada on September 6, 2006. The video for the single was completed shortly afterwards, and began airing on MuchMusic at the start of October of the same year. Murray Yates is also a member of a side project band, Caught Crimson, along with former Forty Foot Echo member Rob Kurzretier and singer-songwriter Adrianne Leon. Скрыть...
Популярные аккорды Forty Foot Echo:
алфавиту | просмотрам | случайно
  • Drop D Tuning DADGBA
    
    Intro:
    
    Guitar 1 Clean:
    
    E ------------------------------------
    B ------------------------------------
    G --7-77--9--9------------------------
    D --7-77--7--7-----11--11-11----9--9--
    A --5-55--5--5-----9---9--9-----7--7--
    D…
  • Tuning: Std.
    
    Verses:
    	Bbm	C#sus2	      G#	F#
    e|-------6---------4-----------4---------2-----|
    B|-------6---------4-----------4---------2-----|
    G|-------6---------6-----------5---------3-----| 
    D|-------8---------6-----------6---------4-----|
    A|-------8---------4-----------6---------4-----|
    E|-------6---------4-----------4---------2-----|
    
    Chorus:
    	F#	C#sus2…
  • ^=Staccato 
    >=Hold/Let Ring
    / or \=Slide
    x=Mute String
    G#=Guitar #
    P#=Part #
    x#=Play # Times
    ==========
    INTRO
    ----------
    G1
    e|--------------------------------------------------------------|x2
    B|--------------------------------------------------------------|
    G|--------------------------------------------------------------|
    D|-8-8--11-11--8-8--11-11--8-8-8--8-8--11-11--8-8--11-11--4-4-4-|
    A|-8-8--11-11--8-8--11-11--8-8-8--8-8--11-11--8-8--11-11--4-4-4-|
    D|-8-8--11-11--8-8--11-11--8-8-8--8-8--11-11--8-8--11-11--4-4-4-|…
Наверх