Аккорды «Garbage»

Garbage
Иногда говорят, что группа Garbage существует с 1994 года. Все ее участники — далеко не дилетанты: Бутч Виг — продюсировал диски таких групп, как Nirvana (альбом «Nevermind, так и группы в целом, голос Ширли, работает не только на компенсацию часто отсутствующих или не преобладающих сольных гитарных партий, но и обогащает и без того, казалось бы неплохое звучание. А про эффекты говорить вообще не стоит. Специалисты в области звукозаписи и ремиксов, работавшие со столь различными направлениями, как… Читать полностью... Иногда говорят, что группа Garbage существует с 1994 года. Все ее участники — далеко не дилетанты: Бутч Виг — продюсировал диски таких групп, как Nirvana (альбом «Nevermind, так и группы в целом, голос Ширли, работает не только на компенсацию часто отсутствующих или не преобладающих сольных гитарных партий, но и обогащает и без того, казалось бы неплохое звучание. А про эффекты говорить вообще не стоит. Специалисты в области звукозаписи и ремиксов, работавшие со столь различными направлениями, как евротехно Depeche Mode, так и рок U2, умеют работать с семплами не хуже The Prodigy. Хорошо сбалансированная музыка, которая работает на настроение. Критики стали называть стиль группы пост-гранджем, готическим попом и даже альтернативой. Хотя как только их не классифицируют. В Интернете, да и не только, можно встретить их песни и в разделах сборной солянки альтернативной музыки, и рока разных степеней свободы, и даже трэша. Сами же музыканты в этот период определяют свою музыку как нечто среднее между Curve, Nine Inch Nails и Eurythmics с явным преобладанием Roxy Music. Песни с их первого альбома могут показаться мрачными, если не вслушиваться в слова, а если прислушаться — жестокими и слишком честными. Как кто-то сказал: «Музыка группы впитала в себя отчаяние 90-х и не нуждается в подборе эпитетов». На несколько песен с первого альбома были сняты видеоклипы, позже объединенные в единое видео, выпущенное на VHS и, естественно, называющееся «Garbage». В этом получасовом фильме, кстати, участвовали не только оригинальные версии песен, но и перебивки из ремиксов. Достать этот шедевр в настоящее время достаточно непросто. В начале 1997 года Garbage засели в студии для записи второго альбома. «Мы будем просто торчать в студии и записывать на пленку то, что придет в голову», — сказал Стив Маркер. Со дня на день выходит новый альбом Garbage, названный «Version 2.0». Маркер описал будущий LP как более «черный и танцевальный, чем первый. «В нем будет что-то типа „As Heaven Is Wide“. Одну из песен мы посвятили нашему кумиру — певице Крисси Хайнд из The Pretenders», — сказал он. Как выяснилось позднее, пара лет, проведенных за записью еще не самый большой период ожидания для многочисленных поклонников. Во время записи второго студийного альбома группа придумала нестандартный, как принято говорить сейчас, маркетинговый ход. Ширли Мэнсон стала вести свой онлайновый дневник, или, как говорят сейчас, блог. Из этого дневника фанаты группы узнавали новости о записываемых треках что называется «из первых уст». Многочисленные музыкальные издания перепечатывали куски дневника Ширли, чем подогревали и без того высокий интерес к группе. Так продолжалось до тех пор, пока неосторожная критика нового альбома Radiohead не вызвала массового неудовольствия и едва не привела к судебным искам. После чего группа изменила правила и запретила тиражировать и цитировать дневники без письменного разрешения. В принципе, «Версия 2.0» повторяет рецепт первого альбома: рок-группа пишет отличные поп-песни, делает их звучание более современным с помощью сэмплов и всевозможной электроники. Ширли отмечала: «Все на альбоме обо мне, о моей жизни. Он более личный чем первый». Альбом пришелся по вкусу любителям качественного саунда и поднялся до первого места в национальном и инди-чартах Британии (и до 13 — на родине в США). Бутч Виг охарактеризовал музыку группы на том этапе следующим образом: «Тяжелее Nine Inch Nails, грувовей чем хип-хоп, больше гитар, чем у My Bloody Valentine». Особенной популярностью пользуются песни «Push It» (первый сингл с альбома), «When I Grow Up», «I think I’m paranoid» и «You Look So Fine». Прошло довольно много времени, пока группа объявила о начале работы над своей третьей пластинкой. Даже после этого, работа не очень клеилась. «Мальчики торчали в баре, — вспоминает Ширли Мэнсон, — а я, удобно расположившись в каком-нибудь углу, сидела, укутавшись старым пледом, и тупо пялилась в телевизор». Смятение и растерянность музыкантов можно объяснить: несмотря на обилие идей и явное желание работать, они тогда еще не до конца понимали, в каком направлении им развиваться. Музыканты решили поработать с музыкой в стиле «поп». «Мы всегда были поклонниками именно этого течения, — утверждает Ширли. — Отчасти это проявилось еще в „Version 2.0“, но тогда мы все еще находились под прессингом гитарной моды. Только не торопитесь с выводами — в понятие „поп“ мы вкладываем свой смысл!» Не в пример своим довольно-таки концептуальным предшественникам, «Beautiful Garbage» — это провокационная смесь из едкого R&B («Androgyny»), стилизованного фолка («So Like a Rose»), более-менее привычного рок-драйва («Silence Is Golden», «Shut Your Mouth»), откровенной пародии («Can’t Cry These Tears») и блестящего танго («Untouchable»). «Мы пришли к тому, — ехидно улыбаясь, заявляет Бутч Виг, — что не бояться пробовать и отходить от привычного звучания — не только вещь необходимая, но и интересная. Все, кроме Ширли, в той или иной степени продюсеры, поэтому процесс познавания нового проходил достаточно гармонично». У музыкантов и вправду было много времени, чтобы позволить себе все, ведь работа над «Beautiful Garbage» продолжалась 14 месяцев. За альбомом последовало изматывающее мировое турне, в процессе которого у Ширли начались проблемы с голосом, вслед за чем последовал диагноз — нервное и физическое истощение. После окончания тура на группу посыпались неприятности — проблемы со здоровьем начались у Бутча Вига, семейные неурядицы преследовали Ширли, перенесшую тяжелую операцию на связках. У Дюка Эриксона умер отец, а Стив Маркер потерял мать… Когда они встречались, они могли говорить о чем угодно, только не о работе и не о студии. «Я помню, как мы сели друг напротив друга и молчали, — вспоминает Ширли Мэнсон. — Потому что вообще не знали, станем ли работать дальше вместе. Если да, то работа над новыми песнями будет очень тяжелой. Если нет… не знаю. Похоже, тогда я вообще ничего не чувствовала». После первой, не очень удачной попытки отправиться в студию, участники Garbage взяли продолжительный тайм аут. В следующий раз они оказались в студии по воле случая — в здание их Smart Studios в одно прекрасное утро въехал десятитонный грузовик. После ремонта ребята постепенно влились и в процесс записи альбома. В России альбом вышел 11 апреля 2005 года. По словам музыкантов «На новом альбоме мы в первый раз попытались уйти от мыслей: «Давайте посмотрим, как далеко заведут нас наши идеи». Мы не экспериментировали, не старались специально никого удивить, а просто сочиняли песни. Поэтому музыка на альбоме будет ближе к диску «Version 2.0», а характер песен — сексуально-агрессивным». Garbage, славившиеся тем, что всегда справляются с записью своих альбомов сами, пригласили в студию музыкантов со стороны. Первым рекрутом стал Джон Кинг из Dust Brothers. Ширли признается, что именно с появлением этого человека она наконец-то «успокоилась и поняла, что альбом будет доведен до конца». После к ним присоединился Дейв Грол из Foo Fighters, и записал партию ударных в открывающую новый альбом песню «Bad Boyfriend». Новый альбом группы Garbage демонстрирует высокие показатели в чартах. Он не только стал самым быстро распродаваемым альбомом группы, но и показал самые лучшие результаты в чартах по сравнению с предыдущими релизами. В топ-100 журнала Billboard он дебютировал на четвертом месте, на четвертом же месте он находится и в американском чарте — так высоко с первой попытки музыкантам еще ни разу не удавалось забраться. www.garbage.com — официальный сайт Скрыть...
Популярные аккорды Garbage:
алфавиту | просмотрам | случайно
  • Riff:
    
    e|---5------------------|
    b|-----5----------------|
    g|-------5--7(b)9-------| 7(b)9 = Bend 7 to 9 (D to E)
    D|----------------------|
    A|----------------------|
    E|----------------------|
    
    
    Verse 1:
    Am G
    I'm only happy…
  • (guitar intro 4 bars)
    Verse
    Pre Chorus
    Chorus
    Verse riff X 4
    Verse
    Pre Chorus
    Chorus
    Bridge1
    Chorus
    Bridge2
    Outro
    ___________________________
    
    This Is What happens in each of the Parts of The song
    
    Verse
    
    G|----------------|…
  • TUNING: D G C F A D
    
    
    INTRO/VERSE
    
    Guitar 1 - Clean - plays throughout verse
    |----0------0-------0--------|
    |-------------------------0--|
    |--------3--------3-----3----|
    |-2----2-------2------2------|
    |----------------------------|
    |----------------------------|
    
    
    Guitar…
  • G*             Am
    You look so fine
    Am        F
    I want to   break your heart
                  C
    And give you mine
    C                 Em
    You're taking me over
    
    It's so insane
    You've got me tethered and chained
    I hear your name
    And…
  • INTRO/VERSE
    |-----------------------------------------
    |----13----13----13--------9----9----9----
    |-10----10----10----10--10---10---10---10-
    |-----------------------------------------
    |-----------------------------------------
    |-----------------------------------------
    
    ----------------------------------------|
    ----11----11----11-------11---11---11---|
    -10----10----10----10--8----8----8----8-|
    ----------------------------------------|
    ----------------------------------------|
    ----------------------------------------|
    
    
    PRECHORUS
    |-------------|
    |-------------|
    |-3--5--6--8--|
    |-3--5--6--8--|
    |-1--3--4--6--|
    |-------------|
    
    
    CHORUS
    |-------------|
    |-------------|
    |----6-----8--|
    |-3--6--8--8--|
    |-3--4--8--6--|
    |-1-----6-----|
    
    Lead
    |--------------------------------|
    |----12-13----9-11-9-11b12r11----|
    |-10-------10-----------------10-|
    |--------------------------------|
    |--------------------------------|
    |--------------------------------|
    
    
    |--------------------------------|
    |----12-13----9-11-9-11----------|
    |-10-------10--------------------|
    |--------------------------------|
    |--------------------------------|
    |--------------------------------|
    
    
    VERSE…
  • Section 1:
    Guitar 1:clean electric.
    Guitar 2:moderate distortion.
    Each line of the tab is equal to 2 bars.
    Riff 1, Guitar 1: 2 bars long
    (Ab) (Cm)
    E I------6-4--I-----3----I
    B I---4-----4-I---4---4--I
    G I-----5-----I----5---5-I
    D…
  • Intro
    
    --2----7 times --------
    --5---- --2---2-
    --4---- --2---2-
    --2---- --2---2-
    --2---- --------
    --0---- --------
    
    
    Baby thinks Hes Dying
    
    -2-----2----2---2--------------------------
    -5-----5----5---5---2--2--2---------------
    -4-----4----4---4---2--2--2---------------
    -2-----2----2---2---2--2--2---------------
    -2-----2----2---2-------------------------
    -0-----0----0---0-------------------------
    
    Lost…
  • INTRO
    |---------------------------------------|
    |----------16------------------------16-|
    |-13-15-16-----13-15-16-13--13-15-16----|
    |---------------------------------------|
    |---------------------------------------|
    |---------------------------------------|
    
    
    |-------------|
    |-------------|
    |-------------|
    |-9--6--4--2--|
    |-9--6--4--2--|
    |-7--4--2--0--|
    
    
    VERSE…
  • Em      Am Em
      I am milk
             Am         Em
    I am red hot kitchen
              Am     Em
    And I am cool
                  Am             Em
    Cool as the deep blue ocean
    I am lost
    So I am cruel
    But I'd be love and sweetness
    If…
  • intro
    
    riff 1
    
    -------------------|----------------------------------------------------------
    -------------------|----------------------------------------------------------
    ------3-5-5b6r5--3-|----------------------------------------------------------
    ----5--------------|----------------------------------------------------------
    -------------------|----------------------------------------------------------
    -------------------|----------------------------------------------------------
    riff…
  • F?‚m c?‚m bm7 c?‚7
    F?‚m
    You told me you don't love me
    c?‚m
    Over a cup of coffee
    bm7 c?‚7
    And I just have to look away
    F?‚m
    A million miles between us
    c?‚m
    Planets crash into dust
    bm7 c?‚7
    I just let it fade away
    F?‚m
    I'm…
  • Intro
    
    |-2-2-2-2-4-4-4-4-2-2-2-2-4-4-4-4-|
    |-3-3-3-3-5-5-5-5-3-3-3-3-5-5-5-5-|
    |-2-2-2-2-4-4-4-4-2-2-2-2-4-4-4-4-|
    |-x-x-x-x-x-x-x-x-x-x-x-x-x-x-x-x-|
    |-x-x-x-x-x-x-x-x-x-x-x-x-x-x-x-x-|
    |-x-x-x-x-x-x-x-x-x-x-x-x-x-x-x-x-|
    
    Verse…
  • (в оригинале - в Fm)
    
    Am              Em
    I know how to hurt
    Am              Em
    I know how to kill
    Am               F
    I know what to show
                    H7
    And what to conceal
    Am              Em
    I know when to talk
    Am…
  • Intro/Bridge (Both Guitars):
    
    |--------------------------0--------------------------0--|
    |--------------------------0--------------------------0--|
    |--------------------2-4-2----2-2-2-2-2-2-2-----2-4-2----|
    |--4-4-4-4-4-4-4--/4-2-4-2----2-2-2-2-2-2-2--/4-2-4-2----|
    |--4-4-4-4-4-4-4--/4----------0-0-0-0-0-0-0--/4----------|
    |--2-2-2-2-2-2-2-----------------------------------------|
    
    Verse…
  • Am C F
    
    Am C F
    I can't use what I can't abuse
    Am C F
    and I can't stop when it comes to you
    
    Am C F
    You burn me out but I'm back at your door
    Am C F
    Like Joan of Arc coming back for more
    Dm Bb Am E Dm Bb (not too sure)
    I…
  • C                  F                 C     F C F C
    Won't you let me walk you home from school
    C                  F             Dm AmDm
    Won't you let me meet you at the po-o-ol
    Dm      Am      Dm
    Maybe Friday I can
    Dm…
  • INTRO/VERSE
    
    e -----------------------------------------------------------------------|
    B -----------------------------------------------------------------------|
    G -----------------------------------------------------------------------|
    D…
  • INTRO
    |---------------------------------------------------|
    |-----0-----0---------0-----0---------0-----0-----4-|
    |---2-----2-----2---2-----2-----2---2-----2-----6-4-|
    |-4-----4-----4---2-----2-----2---1-----1---------4-|
    |---------------------------------------------4---2-|
    |---------------------------------------------------|
    
    
    VERSE
    |-------------------------|
    |-------------------------|
    |----6-----6-----4-----4--|
    |-2--6--2--6--4--4--4--4--|
    |-2--4--2--4--4--2--4--2--|
    |-0-----0-----2-----2-----|
    
    
    CHORUS
    |----------------------------|
    |----------------------------|
    |-2--4--2--4-----2--8--6--4--|
    |-2--4--2--4--4--2--8--6--4--|
    |-0--2--0--2--4--0--6--4--2--|
    |-------------2--------------|
    
    
    VERSE…
  • Intro (something similar, played under A-like-chord)
    
    e--0---------- -0-----------0-----------0-0-0-repeat two times
    b--2~-0---3-2- -1-0---3-2---2~-0---3-2--2-2-2-
    g--2----2----- -2---2-------2----2------2-2-2-
    d--2----------…
  • C Emin
    E-----------------------------[0]----------------
    B-----------[1]------[0]----------0--------------
    G---------0-----0-----------0--------0-----------
    D------2-----------2-----2-----------------------
    A--[3]----------------2--------------------------
    e------------------------------------------------
    1.…
  • Intro/Chorus (Guitar 1):
    
    |----------------------------------------------|
    |----------------------------------------------|
    |----------------------------------------------|
    |------2----------------------2----------------|
    |-----------0h2-5--0h2-------------0h2-5--0h2--|
    |--0-0--------------------0-0------------------|
    
    Intro/Chorus…
  • ---------------------|--------------------|-----------------------------------
    ---------------------|--------------------|-----------------------------------
    ---------------------|--------------------|-----------------------------------
    -7-xx-7-xx-7-xx-7-xx-|-7-xx-7-xx-7-xx-8-8-|-----------------------------------
    -7-xx-7-xx-7-xx-7-xx-|-7-xx-7-xx-7-xx-8-8-|-----------------------------------
    -5-xx-5-xx-5-xx-5-xx-|-5-xx-5-xx-5-xx-6-6-|-----------------------------------
    
    
    ---------------------|--------------------|-------------------------|---------
    ----------------12---|--------------------|-------------------------|---------
    ---------12----------|------12---------15-|----------12-------15b17-|---------
    ------14----14-------|-14---------14------|-------14----14----------|---------
    -12------------------|--------------------|-12----------------------|---------
    ---------------------|--------------------|-------------------------|---------
    intro…
  • INTRO:
    
    (drums w/snd effects -Synth wind sounds w/odubbed gtr pick slides)
    
    Rhythm Figure 1
    F#5 B5 F#5 B5
    / / / /
    e|----->----->----->----|->-----------|---------------------|-------------|
    b|-----5-----5-----5----|-4-----------|----5-----5-----5----|-4-----------|
    g|*----6-----6-----6----|-4-----------|----6-----6-----6----|-4----------*|
    d|*-4-----4-----4-----4-|-------------|-4-----4-----4-----4-|------------*|
    a|----------------------|-------------|---------------------|-------------|
    e|----------------------|-------------|---------------------|-------------|
    
    (F#)…
  • The chords throughout are implied chords that are played by keyboards
    
    INTRO
    |-4--0--4--0--|
    |-5--0--5--0--|
    |-6--1--6--1--|
    |-6--2--6--2--|
    |-4--2--4--2--|
    |----0-----0--|
    
    
    VERSE
    |-4--0--4--0--4--0--2--0--|
    |-5--0--5--0--5--0--2--0--|
    |-6--1--6--1--6--1--3--1--|
    |-6--2--6--2--6--2--4--2--|
    |-4--2--4--2--4--2--4--2--|
    |----0-----0-----0--2--0--|
    
    
    CHORUS
    |-4--7--6--2--|
    |-4--7--7--2--|
    |-4--8--8--3--|
    |-6--9--8--4--|
    |-6--9--6--4--|
    |-4--7-----2--|
    
    
    VERSE…
  • INTRO
    |------------------------19-------|
    |-19----19-18-----18-19-----19-18-|
    |----16--------16-----------------|
    |---------------------------------|
    |---------------------------------|
    |---------------------------------|
    
    
    |-------------------------|
    |-------------------------|
    |-4-----4-----4-----4-----|
    |-4--5--4--5--4--5--4--5--|
    |-2--5--2--5--2--5--2--5--|
    |----3-----3-----3-----3--|
    
    
    VERSE
    |-------------------------|
    |-------------------------|
    |-4-----4-----4-----4-----|
    |-4--5--4--5--4--5--4--5--|
    |-2--5--2--5--2--5--2--5--|
    |----3-----3-----3-----3--|
    
    |-------------------------|
    |-------------------------|
    |-4--------2--4-----2--2--|
    |-4--5--2--2--4--5--2--2--|
    |-2--5--2--0--2--5--0--0--|
    |----3--0--------3--------|
    
    
    CHORUS
    (Implied…
  • INTRO
    e|---------------------------------------------------------------------------|
    B|-2-------2-0---------0-----------------------------------------------------|
    G|---2---2-----1-----1---2-------2-1-----------------------------------------|
    D|-----4---------3-3-------4---4-----3---------------------------------------|
    A|---------------------------4---------4-------------------------------------|
    E|---------------------------------------------------------------------------|
    
    CHORUS
    e|---------------------------------------------------------------------------|
    B|---------------------------------------------------------------------------|
    G|---------------------------------------------------------------------------|
    D|---------------------------------------------------------------------------|
    A|---------0-0-2-------------------------------------------------------------|
    E|-2-2-4-4-------------------------------------------------------------------|
    
    Chords(CHORUS)
    F#,…
  • VERSE - Guitars tacet
    
    
    CHORUS
    |----------------|
    |----------------|
    |-7-----------6--|
    |-7--5--8--3--6--|
    |-5--5--8--3--4--|
    |----3--6--1-----|
    
    
    VERSE 2 - Same
    
    Wah lead
    |----------------------------|
    |----------------------------|
    |---10---8-10------10---8-10-|
    |----------------------------|
    |-8----8-------8-8----8------|
    |----------------------------|
    
    
    CHORUS…
  • --------------------------------------------
    -------------------------------------------
    ---------------------------------------------
    ----------------------------------------------
    --------------------------------------------
    --3bend…
  • intro
    
    -22--|---|---|---|-3--|-------------------------------------------------------
    -20--|---|---|---|-3--|-------------------------------------------------------
    -----|---|---|---|-3--|-------------------------------------------------------
    -----|---|---|---|-5--|-------------------------------------------------------
    -----|---|---|---|-5--|-------------------------------------------------------
    -----|---|---|---|-3--|-------------------------------------------------------
    high…
  • INTRO/VERSE
    |-------------------------------|
    |-14-14-13-13-11-11-------11-11-|
    |-------------------12-12-------|
    |-------------------------------|
    |-------------------------------|
    |-------------------------------|
    pm...........................
    
    
    build…
  • INTRO
    |-----------------|
    |-----------------|
    |---------5-5-5-5-|
    |-5-5-5-5-5-5-5-5-|
    |-5-5-5-5-3-3-3-3-|
    |-3-3-3-3---------|
    
    Lead
    |-18----18⁄17-----17⁄15-----15⁄13----10---10⁄8----8⁄6----6⁄3----|
    |---------------------------------------------------------------|
    |----15--------14--------12-------------7-------5------3--------|
    |---------------------------------------------------------------|
    |---------------------------------------------------------------|
    |---------------------------------------------------------------|
    
    
    VERSE
    |-------------------------------------------|
    |-3--3---3---3--3---3---3--3---3---6--------|
    |-3--3---3---3--3---3---3--3---3---5--------|
    |-5--5---5---5--5---5---5--5---5---5--------|
    |-6--6---6---6--6---6---6--6---6---3--------|
    |-------------------------------------------|
    
    
    CHORUS…
  • -------------|------------------|---------------------------------------------
    -------------|------------------|---------------------------------------------
    -------------|------------------|---------------------------------------------
    -----2-------|-----2------------|---------------------------------------------
    ---------1---|---------1b2--r---|---------------------------------------------
    -0-0---0-----|-0-0---0--------3-|---------------------------------------------
    play…
  • INTRO/VERSE
    |------------------------------|
    |-------11------13----13-14-11-|
    |-12-12----12------12----------|
    |------------------------------|
    |------------------------------|
    |------------------------------|
    
    
    CHORUS -…
  • Intro
    e|-------------------------------------------------------|
    B|-------------------------------------------------------|
    G|--/9-7-----7/9--9b10r9----------/9--7-----7/9--7-------|
    D|--/9-7--9--7/9--9b10r9----------/9--7--9--7/9--7--9----|
    A|--------9---------------------------=--9----------9----|
    E|-------------------------------------------------------|
    
    Verse
    e|------------------------------------------------------|
    B|------------------------------------------------------|
    G|--/9--7-----7/9--9b10r9-------------------------------|
    D|--/9--7--9--7/9--9b10r9-------------------------------|
    A|---------9--------------------------------------------|
    E|------------------------------------------------------|
    
    Verse…
  • intro
    ----------------------------------------2---2--2-2-2--------------
    --------------------------3-3-2-2-2-2---2---2--2-2-2-------------
    --4-4-4-4-4-4-4--2-2-2-2--2-2-2-2-2-2---4---4--2-2-2----------------
    --2-2-2-2-2-2-2--2-2-2-2----------------4---4--4-4-4-------------
    ----------------------------------------4---4--4-4-4-------------
    ----------------------------------------2---2--2-2-2--------------
    
    ------------------------------------------------------------------
    --3-3-2-2-2--------------10--9---------7--5--------------------
    --2-2-2-2-2-----*--9--------------9-----------7------------------
    ---------------------7--------------7----------------------------
    -----------------------------------------------------------------
    ------------------------------------------------------------------
    verse
    ------------------------------------------------------------------
    -----------------------------------------------------------------
    ---------6-x8---------------------6x8--5x11-------------------------
    --6x5----4------6-x5--11x7--6x5---4----5-----------------------------
    --4------4------7-----9-----0-----0----3-------------------------
    --4------4------7-----7-----0-----0----3---------------------------
    
    chorus(with…
  • Intro: E5 G5 E5 A5 | E5 G5 E5 A5 | E5 > 2x
    
    
    Em             C         G             H7
    I'm no barbie doll, I'm not your baby girl
    I've done ugly things and I have made mistakes
    And I am not as pretty as those girls in magazines
    I…
  • Tuned half step down (-1)
    
    Intro (piano): F#m  A/E }x2
    
    Bm
    The world might end, The night might fall.
    D/E   
    Rain on down and cover us all, 
         Bm                              E
    And drown us with the burdens of…
Наверх