Аккорды «Gary Hoey»

Gary Hoey
Gary Hoey - американский гитарист, исполняющий музыку в стиле серф-рок. Родился 23 августа 1960 года в городке Лоуэлл, штат Массачусетс. Гэри с детства проявлял способности к музыке, поэтому родители отдали его учиться в бостонский колледж Беркли. Он часто пропускал занятия, чтобы подработать, давая уроки игры на гитаре своим приятелям. Позже Гэри решил бросить учебу, чтобы полностью сконцентрироваться на творчестве. Собрав группу, начинающий музыкант играл в небольших клубах Бостона. В 1988… Читать полностью... Gary Hoey - американский гитарист, исполняющий музыку в стиле серф-рок. Родился 23 августа 1960 года в городке Лоуэлл, штат Массачусетс. Гэри с детства проявлял способности к музыке, поэтому родители отдали его учиться в бостонский колледж Беркли. Он часто пропускал занятия, чтобы подработать, давая уроки игры на гитаре своим приятелям. Позже Гэри решил бросить учебу, чтобы полностью сконцентрироваться на творчестве. Собрав группу, начинающий музыкант играл в небольших клубах Бостона. В 1988 году он попытался попасть в коллектив к Оззи Осборну (Ozzy Osbourne), когда тот подыскивал себе нового гитариста взамен ушедшего Jake E. Lee. Однако Оззи на прослушивании предпочел Зака Уайльда (Zakk Wylde). В 1990 году Gary Hoey создал первую серьезную команду, которая получила название «Heavy Bones», в ее состав вошел певец Joel Ellis, басист Rex Tennyson и барабанщик Frankie Banali. Команда даже успела выпустить один альбом в 1992 году, после чего распалась. В 1993 году Гэри представил музыкальной общественности успешный сольный альбом под названием «Animal Instinct», в состав которого вошла кавер-версия на суперхит «Hocus Pocus» голландской группы «Focus». Композиция попала в рейтинг «Billboard Top 5», став одной из наиболее популярных песен года. Вскоре последовал не менее успешный саундтрек «Endless Summer II». Этот релиз стал первым в уникальной серии инструментальных альбомов музыканта. Всего Gary Hoey выпустил 12 подобных студийных работ, сумев в каждой из них продемонстрировать впечатляющее гитарное мастерство. В 1996 году вышел очередной альбом Гэри, который получил название «Bug Alley»,на нем музыкант впервые продемонстрировал свое вокальное мастерство. Опыт оказался весьма удачным и пришелся по вкусу поклонникам, а потому Gary Hoey продолжил эксперименты. Последний на сегодняшний день релиз Гэри — пластинка «Utopia», выпущенная в 2010 году. Всего за годы карьеры музыкант записал 16 отличных альбомов и пять суперхитов, пробившихся в хит-парад «Billboard hits TOP-20». В рейтингах лучших гитаристов планеты Gary Hoey неизменно занимает свое место в сотне. Скрыть...
Популярные аккорды Gary Hoey:
алфавиту | просмотрам | случайно
  • Intro:
    
    |------------------|
    |------------------|
    |------------------|
    |------------------|
    |-4-----4-----4----|
    |-2-2-2-2-2-2-2----|
    
    
    He then does some other overdriven stuff, before he gets to the lead in:
    
    |-15H17-17-17-17--17-17-15H17-17-17-17-------------------------|
    |-15H17-17-17-17--17-17-15H17-17-17-17-------------------------|
    |--------------------------------------------------------------|
    |--------------------------------------------------------------|
    |--------------------------------------------------------------|
    |--------------------------------------------------------------|
    
    
    Then…
  • Tune down 1/2 step
    Play with distortion:
                  riff 1        ~~~~                 End riff 1
    |------------|---------------------|-----------------------|
    |------------|-------------8----8--|--------8--8--8--8-----|
    |-----x--x---|-------------7----7--|--------7--7--7--7-----|…
  • Intro
        Q=92
        Dmaj7                      Dmaj7
       4/4
        Gtr I
    ||-----2--------|------------|----2--------|---------||
    ||o------2------|------------|------2------|--------o||
    ||---------2----|-(2)--------|--------2----|-(2)-----||
    ||--0-----------|------------|-0-----------|---------||
    ||o-------------|------------|-------------|--------o||
    ||--------------|------------|-------------|---------||…
  • muted
    |------------------------------------------------------------------------|
    |------------------------------------------------------------------------|
    |------------------------------------------------------------------------|
    |-----------------8------------------------------------------------------|
    |-6-9-6-9-6-9-6-9---9-6-9-6-9-...----------------------------------------|
    |------------------------------------------------------------------------|
    
    
    The…
  • First guitar comes in...
    |-------|--------------------------------------------------|
    |-------|--------------------------------------------------|
    |-------|o------------------------------------------------o|
    |-13---|o------------------------------------------------o|
    |-11---|--------------------------------------2~--4~------|
    |-------|---2h4-4-4---4-2h4-4-4---4-2h4-4-4--4-------------|
    
    
    We…
  • Here's the rhythm guitar, it's played throught the song:
    |------------------------------------------------------|
    |--8h9---9--9----9--9--8----------8-6-------8-8-9--8---|
    |o-8-----8--8----8--8--8-8-8------8-6-6-6-6h8-8-8--8--o|
    |o-8h10--10-10---10-10-8-8-8-8h10-8-6-6-6-6h8-8-10-8--o|
    |------------------------------------------------------|
    |------------------------------------------------------|
    
    
    And…
  • Tune down a half step to be in tune with the record.
    
    |----------------------12-------15-14-15----------------|
    |----------12-15-13-13----15-15----------15-12-------12-|
    |----12-14-------------------------------------12-14----|
    |-------------------------------------------------------|
    |-------------------------------------------------------|
    |-------------------------------------------------------|
    
    |-------12----------------------------------------------|
    |-13-15----15-13-12----12----------------------13-12----|
    |-------------------14----12-11-12-14----11-14-------14-|
    |-------------------------------------12----------------|
    |-------------------------------------------------------|
    |-------------------------------------------------------|
    
    |----------------------12-------15-14-15----------------|
    |-12-------12-15-13-13----15-15----------15-12-------12-|
    |----12-14-------------------------------------12-14----|
    |-------------------------------------------------------|
    |-------------------------------------------------------|
    |-------------------------------------------------------|
    
    |-------------------------------------15----------------|
    |----15-13-12-------------------12-15----15-12----------|
    |-------------14-12----12-11-12----------------12-------|
    |-14----------------12----------------------------------|
    |-------------------------------------------------------|
    |-------------------------------------------------------|…
Наверх