Аккорды «Ghoti Hook»

Ghoti Hook
Ghoti Hook - христианская поп-панк группа из Фэйрфакса, штат Вирджиния. Группа была образована в 1991 году, в состав Ghoti Hook вошли Джоэл Белл (Joel Bell), Конрад Толоза (Conrad Tolosa), Джеми Толоза (Jamie Tolosa), Кристиан Эргета (Christian Ergueta) и Адам Нойбауэр (Adam Neubauer). Группа выпустила два сингла в 1994 и 1995 годах, а в 1996 году записала и выпустила два альбома (Sumo Surprise и Banana Man) на лэйбле Tooth and Nail Records. Конрад, гитарист и основной автор песен группы, решил… Читать полностью... Ghoti Hook - христианская поп-панк группа из Фэйрфакса, штат Вирджиния. Группа была образована в 1991 году, в состав Ghoti Hook вошли Джоэл Белл (Joel Bell), Конрад Толоза (Conrad Tolosa), Джеми Толоза (Jamie Tolosa), Кристиан Эргета (Christian Ergueta) и Адам Нойбауэр (Adam Neubauer). Группа выпустила два сингла в 1994 и 1995 годах, а в 1996 году записала и выпустила два альбома (Sumo Surprise и Banana Man) на лэйбле Tooth and Nail Records. Конрад, гитарист и основной автор песен группы, решил покинуть Ghoti Hook, когда группа начала посвящать концертной деятельности все свое время, так как это мешало ему закончить обучение и продолжить карьеру в области бухгалтерского дела. После выпуска первого альбома Songs We Didn't Write к группе присоединился Марк Лакассе (Mark Lacasse), и звучание группы сместилось от панка в сторону рока, что стало заметным уже на следующем альбоме - Two Years to Never. Тексты песен, вошедших во второй альбом, также были более серьезными и философскими. Вскоре после этого Кристиан и Марк покинули группу. Несмотря на то, что участников Ghoti Hook осталось всего трое, они выпустили диск с шестью записями под названием EP на лэйбле Velvet Blue Music. В 2002 году группа окончательно распалась, их последний концерт состоялся 6 июля 2002 года на музыкальном фестивале в Корнерстоуне, где в качестве приглашенных исполнителей участвовали Конрад и Марк. Концерт группы был записан, после чего запись была издана в качестве отдельного альбома под названием Rest In Peace. Конрад Толоза в настоящее время управляет сайтом Decapolis.com, музыкальным интернет-магазином. Кристиан играет в группе Imperial X. Примечание. Первое слово названия группы - "Ghoti" - это фонетическое преобразование произношения слова "fish" (рыба), авторство которого часто приписывают Бернанду Шоу. Это слово является одним из наиболее ярких примеров нелогичности английского произношения: "GH" берется из произношения соответствующих букв в слове "rouGH" [произносится f], "O" - из слова "wOmen" [произносится i], а "TI" берется из слова "naTIon" [произносится как sh]. В действительности название группы произносится как Go-Tee. Скрыть...
Популярные аккорды Ghoti Hook:
алфавиту | просмотрам | случайно
  • (intro) 1st part
    E-----------------------------------------------------
    B-----------------------------------------------------
    G-7-7---7-7-------------------------------------------
    D-7-7---7-7--3--5-5--7-7--3---------------------------
    A-5-5---5-5--3--5-5--7-7--3---------------------------
    E------------1--3-3--5-5--1---------------------------…
  • Verse Part 1:
    A-33333----------33333---------
    E-----------33333----------33333
    I only wrote each note to be played 5 times here.  They actually play 
    each note like 20 times.  Just listen to the CD, you'll figure it…
  • Here is the bass solo/intro/chorus
    
    g-----------------------0------------------------------
    d--------------------320-30--------------3-5-----------
    a--3232---------3232--------3232------------33333333---
    E------111-333------------------111-333-1-3------------…
  • -----------------|-----------------|-----------------|-----------------|------|
    -----------------|-----------------|-----------------|-----------------|------|
    -----------------|-----------------|-----------------|-----------------|------|
    -----------------|-----------------|-----------------|-----------------|------|
    -3---3---3---3-3-|-----------------|-3---3---3---3-3-|-----------------|------|
    -----------------|---3-3---3-------|-----------------|---3-3---3-------|------|…
  • Intro:(listen to when the bass comes in)
    G-----                   G--------------
    D-----                   D--------------
    A--3-5                   A--3-5---1-1-3-
    E-----  play 2X   Then   E--------------   Play a
    bunch…
  • +---+---+---+---+---+---+---+
      | A | C | G | D | F | B | E*|
      +---+---+---+---+---+---+---+
    e-| - | - | - | - | - | - | - |
    B-| - | - | - | - | - | - | - |
    G-| - | 5 | - | 7 | - | 4 | 9 |
    D-| 7 | 5 | 5 | 7 | 3 | 4 | 9…
  • intro:
    D-------5555-------3333-------5555-33---------------------------
    A-333---------333---------333-----------3------------------------
    
    
    verse:
    A-333--------333-111-333-------111-333-----------------------
    E------333-----------------333------------------------------------
    -
    
    
    chorus:
    A------3333
    E-1-3
    
    
    the…
  • INTRO and VERSE
    G--------------------------
    D--------------0-0-2-3-2-0
    A-3-3---0-0-4-------------
    E-----3--------------------
    
    
    CHORUS
    G-----------------
    D-----------------
    A-3-3-0-0-----3-3
    E----------3-3----
    
    
    BRIDGE
    G--------------------------------------
    D----------------------0-0-0-0-2-3-2-0
    A-3-3-3-3---0-0-0-0-4-----------------
    E----------3---------------------------…
  • G--------------------------4--7-----4--7-------------------------------------------|
    D-----4--7-----4--7----5---------5----------------------------------4--7-----4--7--|
    A--5---------5-----------------------------------4--7-----4--7---5---------5-------|
    E---------------------------------------------5--------5---------------------------|…
  • COME IN WITH DRUMS ON SECOND TIME OF THE SOLO
    G:---------------------------------------------------------------
    D:---------------------------------------------------------------
    A:-3-3-3-1--3-3-3----3-3-3-1--1-1-1-3--3-3-3-1--3-3-3----------1--1-1-1-3-------------------
    E:----------------4-----------------------------------4--4-4-4--------
    
    
    G:---------------------------------------------------------------
    D:---------------------------------------------------------------
    A:-3-3----3-3-1--3-3----3-3-1--3-3-3----3-3-1--3-3----3-3-1-1-1-1-1-1-1-1-1-------------------
    E:-----4-------------4---------------4-------------4-----------------
    
    
    G:-------------------------…
  • Intro
    G----------------------------------------------------------------------------------]
    D----------------------------------------------------------------------------------]
    A---5-5-5-5-5-5-5-5---3-3-3-3-3-3-3-3---5-5-5-5-5-5-5-5---8-8-8---10-10-10---------]
    E----------------------------------------------------------------------------------]
    
    
    G----------------------------------------------------------------------------------]
    D----------------------------------------------------------------------------------]
    A---5-5-5-5-5-5-5-5---3-3-3-3-3-3-3-3---5-5-5-5-5-5-5-5----------------------------]
    E---------------------------------------------------------1-0-1-3-1-3-5------------]
    
    
    Chorus
    G--------------------------------------------------------------------------------------------
    D--------------------------------------------------------------------------------------------
    A--5-5-5-5-5---3-3-3-3-3--------------------------5-5-5-5-5---3-3-3-3-3----------------------
    E---------------------------3-3-3-3-3---1-1-1-1-1-------------------------1-1-1-1-1--3-3-3-3-3
    
    ----]
    ----]
    ----]…
  • Intro (Repeat however many times)
    g---------------------------------------------------------
    d---------------------------------------------------------
    a--5-2-0--------------------------------------------------
    E--------333----------------------------------------------…
  • standard tuning
    
    strumming patterns not show
    
    (intro)acoustic
    e-0---4---4---5------------------
    b-0---5---4---5------------------
    g-1---6---5---6------------------
    d-2---6---6---7------------------
    a-2---4---6---7------------------
    e-0---4---4---5------------------
    
    (beggining…
Наверх