Аккорды «Гимны стран мира»

Гимны стран мира
Гимны стран мира Гимны стран мира Скрыть...

Теги:

Популярные аккорды Гимны стран мира:
алфавиту | просмотрам | случайно
  • e|--------------------------------------------------------------
     B|-----------------3---0------0-------1-------------------------
     G|--------0-0--2-2------0---0---0-----------0--------0-2--4-4-4-
     D|-0-0--0---------------------------2----4----------------------…
  • |-0---0--0-----0--1--3---1--0--------0------0---------------------| 
    3------------------3--1------0---------------0--1--3--| 
    -----------------------------------2--1--2------------| 
    
    |-0---0--0-----0--1--3---1--0------------0-----------|
    3------------------3--1------------------|
    -------------------------2------1--2---2-|
    
    |--------0-------------------------------------------0---0-|
    |-0---0-----3--1--0-----0--1------0--0--1--1---3--3--------|
    ---------2---------2---------------------------|
    
    |--------0---------------------------------0------0---------------0--1-|
    |-0---0-----3--1--0-----0--1------0--0--1------0--------0--1---3-------|
    ---------2---------2---------------------2-----------------|
    
    |-3---2--3--0---------3--1--0------------------0------------0--1-|
    ---3--3------------3--1--1---3--3------3--1--3-------|
    -----------------------------------------------------|
    
    |-3---2--3--0---------3--1--0------------0------------|
    ---3--3------------3--1-------------------|
    -------------------------2------1--2---2--|
    Последние…
  • e) -------0-4-2-0--------------------------------
      B) -0---0----------------0-0-9-7-5h7-5-4-2-4-5-5-
      G) --1-1----------1/3-4--------------------------
      D) ---2------------------------------------------
      A) ----------------------------------------------…
  • C        Em        F        C
    Россия - священная наша держава!
     Dm           F           G
    Россия - любимая наша страна!
     C       G      Am      Em 
    Могучая воля, великая слава -
     F        C        D       G
    Твое достоянье…
  • ]-------------------------------------------[      
    ]-------------------9-----------------------[         
    ]-------5-7-7-8-7-8---7-5-5-5---------------[ - И так сколько угодно раз. 
    ]-5-7-8-----------------------8-8-7-5-7-8-5-[…
  • e|--0-0-1-3-3-1-0---------0-0----|                   
    b|----------------3-1-1-3-----3-3|                  
    g|-------------------------------|                  
    d|-------------------------------|                  
    a|-------------------------------|…
  • C         Em         F         C
    Союз нерушимый республик свободных
     Dm      Dm       Dm      G
    Сплотила навеки великая Русь.
     C           G          Am         Em
    Да здравствует созданный волей народов
     F         C…
  • E   ----------------------------------------------------------------------
    B   ----------------------------------------------------------------------
    G   7-9-11-7-2---2 4---4-0-4-2-4-2---7-6-4---7-9-10-12-10-5-7- -----------
    D…
  • ---------------------------------------------|
    -0---0-------------------0---0---------------|
    ----------0--0---0----2-----------2----0-----|
    ------------------------------------------4--|
    ---------------------------------------------|
    ---------------------------------------------|
    DU…
  • |0-5-0---0----5-5-5----9-7-5-4----5-7-----------------------------|
    |------2----------------------------------------------------------|
    |-----------------------------------------------------------------|
    |-----------------------------------------------------------------|
    |-----------------------------------------------------------------|
    |-----------------------------------------------------------------|
    
    |0-5-0---------0---0-0--9--7--5--4---2---0------------------------|
    |-------2---------------------------------------------------------|
    |---------3-------------------------------------------------------|
    |-----------------------------------------------------------------|
    |-----------------------------------------------------------------|
    |-----------------------------------------------------------------|
    
    |0--2--4--5--2-0--------0---2---4--10-9---7-----------------------|
    |-----------------2-2---------------------------------------------|
    |-----------------------------------------------------------------|
    |-----------------------------------------------------------------|
    |-----------------------------------------------------------------|
    |-----------------------------------------------------------------|
    
    |0-2--4---5---2--0--5--5--7--9----5--7---4---5--------------------|
    |-----------------------------------------------------------------|
    |-----------------------------------------------------------------|
    |-----------------------------------------------------------------|
    |-----------------------------------------------------------------|
    |-----------------------------------------------------------------|
    
    |9--10-9--7--5----4-6--0--5---9---5--7-4--5-----------------------|
    |-----------------------------------------------------------------|
    |-----------------------------------------------------------------|
    |-----------------------------------------------------------------|
    |-----------------------------------------------------------------|
    |-----------------------------------------------------------------|…
  • e-5-5-7-4-5-7--9-9-10-9-7-5-7-5-4-5--12-12-12-12-11-9-11-11-11-11-9-8-9-10-9-7-6-8-10-12-8-7-5-3-|
    B------------------------------------------------------------------------------------------------|
    G------------------------------------------------------------------------------------------------|
    D------------------------------------------------------------------------------------------------|
    A------------------------------------------------------------------------------------------------|
    E------------------------------------------------------------------------------------------------|…
  • E|-----------------------------------------
    B|-----------------------------------------
    G|--0--0-0-----0---0----0---0---0-----0----
    D|--2--5-5-0---0---2----3---5---7-----0----
    A|---------3-------------------------------
    E|-----------------------------------------…
  • Intro
    
    
    |-------------------------------2---------------------------|
    |-----------------------------2---------------------0-------|
    |---------0-0-0-0-0-4-4-4-4-4-----------0---0-2-4-2---4-2-2-|
    |-0-0-0-0-------------------------0-0-0---4-----------------|
    
    
    |-------------------------------4-2-1-1-------------------|
    |-------------------0-0-0-0-0-4---------4-4-2-2-0-0-------|
    |---------2-2-2-2-2---------------------------------2-2-4-|
    |-2-2-2-2-------------------------------------------------|
    
    
    |-----------------------------------------------------------------------|
    |---------------------------------------0-------------------2-----------|
    |---------0-0-0-0-0-4-0-0-0-0---2-2-2-2---2-2-2-2---4-4-4-4---4-4-4-4-0-|
    |-0-0-0-0---------------------2-------------------4---------------------|
    
    
    |-------------------------------------|
    |-0-0-0-0---2-2-2-2-------------------|
    |---------2---------4-0-0-------0-0-0-|
    |-------------------------4-2-4-------|
    
    
    1…
  • |       |       |       |        |       |       |       |        
    |--------------------------------|--------------------------------|
    |10------8-------7-------8-------|7-------5-------3---------------|
    |--------------------------------|--------------------------------|
    |--------------------------------|--------------------------------|
    |--------------------------------|--------------------------------|
    |--------------------------------|--------------------------------|…
Наверх