Аккорды «Gipsy Kings»

Gipsy Kings
Однажды в конце 1970-х, в деревушке Арле на Юге Франции, известный исполнитель фламенко Хосе Рэйес, два его сына Николас и Андрэ Рэйес, а также шурин Чико Боучикхи создали музыкальную группу. Тогда в 1979 группа получила называние «Los Reyes» и некоторое время играла на местных сценах. Поклонникам нравился их стиль испанской гитары, романтический и зажигательный. После смерти Хосе Рэйеса в коллектив пришел виртуозный фламенко-гитарист Тони Бальярдо со своими братьями Морисом и Пако Бальярдо. Вскоре… Читать полностью... Однажды в конце 1970-х, в деревушке Арле на Юге Франции, известный исполнитель фламенко Хосе Рэйес, два его сына Николас и Андрэ Рэйес, а также шурин Чико Боучикхи создали музыкальную группу. Тогда в 1979 группа получила называние «Los Reyes» и некоторое время играла на местных сценах. Поклонникам нравился их стиль испанской гитары, романтический и зажигательный. После смерти Хосе Рэйеса в коллектив пришел виртуозный фламенко-гитарист Тони Бальярдо со своими братьями Морисом и Пако Бальярдо. Вскоре состав группы еще более увеличился за счет гитаристов Диего Бальярдо, Пабло и Пачай Рэйес, а также Кану Рэйес, заменившего Боучикхи (ушедшего в новую группу «Chico & the Gipsy»). Окрыленные успехом, «Los Reyes» выпустили два альбома, но те прошли незамеченными, и команда вернулась к эстрадно-кочевой жизни. Они успешно выступали на городских гуляниях, свадьбах, в барах и просто на публике. Присовокупив к стилю исполнения своих песен также и стиль жизни под открытым небом, переезжая с места на место, как настоящий цыганский табор и пользуясь популярностью благодарной публики, группу решили переименовать в «Gipsy Kings» — «Цыганские Короли». Братья оставались привержены своему традиционному стилю — фламенко, с виртуозным аккомпанементом гитар всех членов группы, среди которых особенно выделялись две звезды — гитара Тони Бальярдо и голос Николаса Рэйес. Уже тогда в их музыке поражало богатство инструментов, их красота и ритмичность. В 1986 году судьба свела музыкантов с Клодом Мартинесом, продюссировавшим молодые группы, и жизнь для них потекла по новому руслу. Творчество Gipsy Kings впитало в себя традиционную цыганскую музыку французского юга, осовремененную талантливыми певцами и гитаристами и достигшую мировой популярности благодаря стараниям продюсера Мартинеса. К тому времени их стиль исполнения стал более интересен, появились ритмичные зажигающие композиции, элементы поп-музыки, латиноамериканские мотивы, и композиции Gipsy Kings стали покорять широкие массы. Виртуозное исполнение собственных гитарных композиций, сплетение легких намеков на латиноамериканский джаз и самбу, перемежающиеся с романтическими композициями, африканскими напевами и даже арабскими мотивами — все это поражало поклонников и все надежнее завоевывало их сердца. В 1987 году родились две из ряда наиболее известных песен Gipsy Kings — «Djobi Djoba» и «Bamboleo», хиты на долгие годы и всемирная узнаваемость. Результатом стал контракт с Sony Music Group, и первый альбом был назван, так же как и группа — Gipsy Kings. Альбом, принесший группе оглушительный успех и славу, вошел в Top Ten хит-парадов двенадцати европейских стран, а в Англии продержался в чартах 40 недель. В конце 80-х Gipsy Kings были представлены Новому Свету. New York New Music Seminar в США стал первым взятым рубежом, и, добившись признания на американском континенте, группа закрепила свой всемирный успех. В 1989-м году Gipsy Kings были даже приглашены на инаугурационный бал в честь президента Джорджа Буша (старшего), но они вместо этого вернулись домой на отдых и к своим семьям. Годом позже они выступили в Royal Albert Hall Среди наиболее известных хитов Gipsy Kings можно также отметить такие как «Inspiration» («Вдохновление»), «Volare», «Vamos A Bailar», «Soy», «Baila Me», «Campesino», «Escucha Me», «Caminando Por La Calle», «Magia Del Ritmo», «Salsa de Noche», «Aven Aven» и многие другие. Gipsy Kings исполняют свои песни циганском диалекте Gitane. Позже Gipsy Kings испробовали свой талант в композициях в стиле румба, сальса и самба, соул и R’n’B. Довольно экзотический и очень привлекательный для слушателей стиль Румба-Фламенко был сформирован в основном под влиянием творчества Gipsy Kings, а в Испании стиль музыки Gipsy еще иногда называют Sevillana. И всякий раз, до сих пор, поклонники встречают их с неизменным восхищением. Gipsy Kings ценятся своими выразительными, страстными песнями, и всемирно-известной мастерской игрой на гитере. В настоящее время Gipsy Kings активно гастролируют по США, бывают и в других странах. Так 18-го и 19-го февраля 2003 года Gipsy Kings дали грандиозный концерт на сцене Государственного Кремлевского Дворца в Москве. Скрыть...
Популярные аккорды Gipsy Kings:
алфавиту | просмотрам | случайно
  • Capo on 5th
    Intro 4x: D
    
    e|---------------------------|
    B|---------------------------|
    G|----------2----------0-2---|
    D|---0--2-4-------0--2-------|
    A|----0------------0---------|
    E|---------------------------|…
  • E---8---------8--8-----8--------8--8----9--------8--8---7-|
    B-----10----10-10----7---10---10-10---7---10---10-10---7--|
    G---------------------------------------------------------|
    D---------------------------------------------------------|
    A---------------------------------------------------------|
    E---------------------------------------------------------|…
  • Capo 2
    
    
    Intro: Em
    
    Em              B7         Em
    Este amor llega asi esta manera
                B7
    No tiene la culpa
    Caballo le ven sabana
    Porque muy depreciado,
                     Em
    Por eso no te perdon de llorar
    Em…
  • Intro: Mientras de fondo va: F#m - C#m - Bm - F#m } x2
    
    
       e ------------------------7-------------------
       B ----10-10p9-10---7-9-10---10-9-7-9-9-7-9----
       G --------------------------------------------
       D -11-----------------------------------------…
  • E                                      F#m  
    Pienso que un sueno parecido no volvera mas  
    H7                                  E  
    Y me pintaba las manos y la cara de azul  
                      G#m               F#m    
    Y…
  • Capo 2
    
    Intro:
    
    Em(add9)                 Em+5(add9)
    |-----------|-----------|-----------|-----------|
    |---------0-|---------0-|---------0-|---------0-|
    |-------0---|-------0---|-------0---|-------0---|
    |-----4-----|-----4-----|-----4-----|-----4-----|
    |---2-------|---2-------|---3-------|---3-------|
    |-0---------|-0---------|-0---------|-0---------|…
  • (Capo on 2nd fret)
    
    F#m(add9)
    Un amor
    
                        Bm
    Un amor viv?
    
    E7                            A         F#m
    Llorando.  Y mi dec?a:
    
    F#m
    Las palabras de Dios,
    
                       Bm        C#7…
  • E||--------------|--------------------------||----------------------||
    B||--------------|--------------------------||----------------------||
    G||-----0--------|--0--0--------------------||*--------------------*||
    D||--------------|--------4--4----2----0----||*--------0--2--4--4--*||
    A||--2-----------|--------------------------||----------------------||
    E||--------------|--------------------------||----------------------||
    
    
    --------------------------------------||------------------------||
    --------------------------------------||------------------------||
    --------------------------------------||*----------------------*||
    --4--4--2--2----0----0----------------||*-------0--2--4--------*||
    --------------------------------------||------------------------||
    --------------------------------------||------------------------||
    
    
    ------------------|-----------------------||
    ------------------|-----------------------||
    ------------------|-----------------------||
    --2--3--5----0----|-------0--2--3----0----||
    ------------------|-----------------------||
    ------------------|-----------------------||…
  • Capo 1
    
    Intro: F7M   Am Gm C7 x2
    
    
    F7M   Bb7M   
     Ay nina 
                                    Am 
    Yo te encuentro solita por la calle 
                   Gm 
    Yo me siento enamorado 
          C7               F 
    Yo me siento…
  • (Capo on 4th Fret)
    
                   Ebm
    Pap?, pap?
    
                                        C#
    No le pegues a la mam?, pap?, pap?
    
                                       B
    No le pegues a la mam?, pap?, pap?…
  • Song Order: A A A B A C A A D A E A
    
    Part A
    
    -3--3--3-2-3-2----|3--3--3--2-3-0--|5--5--5-3-2-3-0-|----------------|
    -0--0--0-0-0-0----|5--5--5--5-5-1--|--------0-0-0-0-|----------------|
    ---------------4/5|--5--5----------|5--5--5---------|----------------|
    ---2--2-----------|----------------|----------------|----------------|
    ------------------|----------------|--0--0----------|----------------|
    ------------------|----------------|----------------|-0--------------|
    
    
    Part…
  • Capo on 5th fret.  (Lyrics are a guess.)
    
    
    Riff 1:             ---------------------------------------------------------|
                            7--7--7--7------------------7--7--7--7---------------|…
  • Intro: (drums in the background the first 8 seconds)
    E----------------------|----------------------|----------------------|
    B----------------------|----------------------|----------------------|
    G---------------0------|---------------0------|---------------0------|
    D-------------0---4-0--|-------------0---4-0--|-------------0---4-0--|
    A---2-------2---------2|---2-------2---------2|---2-------2---------2|
    E-3---3---3------------|-3---3---3------------|-3---3---3------------|
    
    E----------------------|…
  • Bm    F#Gb    A    E    G    D
            e:-----2------2-----0----0----3----2--|
            B:-----3------2-----2----0----0----3--|
            G:-----4------3-----2----1----0----2--|
            D:-----4------4-----2----2----0----0--|…
  • Intro:
    
      Em                   D                  C               Bm          Em
    e|----------------|---0------------|-----------------|----------------------|
    B|-----0h1p0---0--|-0--------------|-----------------|----------------------|
    G|-0-2-------2----|-----2h4p2-0-2--|------0h2p0---0--|-0h2------------------|
    D|----------------|----------------|--2-4-------4----|-----4h5p4--2-4-0-0-2-|
    A|----------------|----------------|-----------------|----------------------|
    E|----------------|----------------|-----------------|----------------------|
    
    Verse…
  • 1(2x):
    Am                         F    Dm9
    Dime, dime, dimelo, alla y dime ya
                G(7)                       Am
    Si me estas queriendo, dimelo por favor 
    
    2:
    Am                                   Fadd9  Dm  Em
    Porque…
  • Section 1
    Am  
    Dime Dime Dimelo
    	 Dm
    Ay ya lo dime ya
    		G
    Y si tu estas querieeeeeeeeendo
    	    Am
    Dimelo por favooooor
    
    
    Repeat Section 1
    
    
    Section 2
    Am
    Porque yo te estoy queriendo
    Dm 		Em
    Y tu lo sabes…
  • F#
    Ami wa wa, ai-la-lai-le
    
    Ami wa wa, ai-la-lai-le
    
    B
    Ami wa wa, ami wa wa
    
    F#
    Ami wa wa, ai-la-lai-le
    
    B
    Yo te quiero más que nadie.
    
                               Bbm
    Tú soi gitana mía.…
  • Rhythm Guitar
         |       |         |       |
    e||--------4-------4---------1-------1----||
    b||--------4-------4---------2-------2----||
    g||*-------------------------------------*||
    D||*-------------------------------------*||
    A||------------6---------1----------------||
    E||----4-------------------------1--------||
    
    Guitar…
  • Am
    Do Do Do Do Do do
    		Em
    Do Do Do Do Do do
    Dm
    Do Do Do Do Do do
     Em
    Do Do Do Do Do do
    Am
    Do Do Do Do Do do
     Em
    Do Do Do Do Do do
    Dm
    Do Do Do Do Do do
    Em
    Do Do Do Do Do do
    	    Am	
    do do od do do
    
    2x
    
    Am…
  • intro:
    
     A#m G#m Bb G#m
     A#m G#m Bb
    
    
    Bb               D#m
    
    Sabe lo que queremos
    
            C# 
    
    pero tenemos
    
    Sabe lo que queremos
    
            G#m7
    
    pero tenemos
    
    Salud y amor
    
                  B7    Bb4 
    
    y liberta son lo prefiero…
  • e|----0---0--|---0---0--|---0---0--|----0----0-|------------
    b|---4-4---4-|--4-4---4-|--4-4---4-|---4----4--|------------
    g|--6---6----|-6---6----|-6---6----|--6----6---|------------
    d|-----------|----------|----------|-----------|Repeat…
  • Tom: G
    
    Intro: G
    
             G
    Caminando por la calle yo te vi
    
    Caminando por la calle yo te vi
              C                    G
    De onde, onde yo me enamorei de ti
              C                D7   G
    De onde, onde…
  • (Capo on 2nd fret)
    
    Intro:
    
    B                   C#m                           E                              F#7
    |--------------------------------------------------------------------------------------------------|
    |----2--4-----5--5-s-4---4-s-2--2-----5-5-s-4--4-s-2-2-----5-5-s-4--4-s-2-2--2-s-5-----------------|
    |--4-------4---------------------------4-----------------------4-----------------------------------|
    |-4------------------------------------------------------------------------------------------------|
    |2-------------------------------------------------------------------------------------------------|
    |--------------------------------------------------------------------------------------------------|
    
    B…
  • (Capo on 3rd fret)
    
    Intro:
    
    Bbmaj7 / Cm / D7
    Gm / F / Eb / D7
    
                                            Bbmaj7
    De las cosas que estoy pasando
    
                           Cm
    De penita yo morir?a.…
  • (Capo on 2nd fret)
    
                                                 D
    Por el amor de una mujer
    
                                            F#m
    Sin saber se comprende
    
                                                      Em/G
    Yo no…
  • C#m                  Bsus4               F#m7              Bsus4
    |--------------------|-------------------|-----------------|-------------------|
    |---5-----------5----|----4-----------5--|---2-----------5-|----4-----------5--|
    |------6-----6-----6-|-4-----4-----4-----|------2-----2----|-4-----4-----4-----|
    |---------6----------|-4--------4--------|4--------4-------|-4--------4--------|
    |4-------------------|-2-----------------|4----------------|-2-----------------|
    |--------------------|-------------------|2----------------|-------------------|…
  • Intro:
    
    7--7--7--------7--7--7--7--7---------|
    8--8--7--------8--8--7--7--7---------|
    9--9--7--------9--9--7--7--7---------|
    9--9--9--------9--9--7--7--7---------|
    7--7--7--------7--7--9--9--9---------|
    ------------------------7--7--7------|
    
    Em
    No…
  • Intro:
    
     A              F#m          Bm           E7               A   F#m
                                                              [keyboard....]
    |-4-0---------0-4-0---|-----0---2-----0-2-5-5-4-0-5-4-2-2-|------------|
    |-----2---2-3-------2-|-2-3---3-----3---------------------|------------|
    |---------------------|-----------------------------------|------------|
    |---------------------|-----------------------------------|------------|
    |---------------------|-----------------------------------|------------|
    |---------------------|-----------------------------------|------------|
    
    Verse
    Bm…
  • (Capo 2)
    
    1:
    
    Bm
    Amor vivir amor llorar
           Em
    Un dia suelta de felicidad
             A7                       D
    Si yo no te encuentro solo por la calle.
    Bm
    Amor vivir amor llorar
           Em
    Un dia suelta de felicidad…
  • (Capo on 6th fret)
    
    (LYRICS are getting closer.  If you have any ideas, please write!!)
    
    Intro:
    
                                          C#
    -----------------------------------------------------|
    -----------------------------------------------------|
    -----------------------------------------------------|
    -----11--11--10-h-11--11-----------------------------|
    -----9-----------------------------------------------|
    9----------------------------------------------------|…
  • Capo 3
    
    Intro 1:	
    
    |---0---0-------0---0---|---0---0-------0---0---|
    |-4---2-------4---2-----|-4---2-------4---2-----|
    |-3-------3---3-------3-|-3-------3---3-------3-|
    |-1-----------2---------|-1-----------2---------|
    |-----------------------|-----------------------|
    |-----------------------|-----------------------|
    
    Intro…
  • (Capo on 2)*
    
    Intro:
    
    F#m / E / D / C#7
    
    F#m                                       Bm
    Volver? de un amor de su d?a
    
               E7                             A
    Cantar? de su amor exist?a
    
                D          Bm
    Yo te…
  • (Каподастр на 1 ладу)
     
    Проигрыш:	Bm / / /
    Em / / /
    A / / /
    D / / /
    Bm / / /
    Em / / /
    F#7 / / /
    Bm / / /
    
    Фальсета I
           Em            A              D         G
    -----5-7-7-7---9-10-9--9--9----5-7---------9-7-7-7-
    -7-8---8-8-8--------10-10-10-------7-7-7-----8-8-8-
    -------4-4-4--------9--9--9--------7-7-7-----7-7-7-
    -----------------------------------7-7-7-----------
    ---------------------------------------------------
    ---------------------------------------------------…
  • INTRO 
    
    C Bm Am D7
    C Bm Am D7  G 
    
    
                    C 
    Cuando te veo amigo 
         Bm        Am 
    No llores, No llores 
             D7 
    Vente Conmigo 
               G 
    No llores maas 
                          C 
    Cuando…
  • (See notes at end of song)
    
    Intro (play twice):
    
    E B A (A7)
    
    4-----5-----x--|
    5-----5-----7--|
    4-----6-----4--|
    6-----7-----4--|
    7-----x-----x--|
    x-----x-----x--|
    
    E B (B7) (Fill 1) A (A7)
    Adem?s de mi persona
    
    B (B7)
    Y…
  • The chords are Am , E , F , G !! :)
    
    
    intro
             2 Times
    
    e--0--0-0-0-0---0-1-0-----0---------------|
    b--1----------3------3-1--0---------------|
    g--2----------------------1---------------|
    d--2----------------------2---------------|
    a--0----------------------2---------------|
    e-------------------------0---------------|…
  • SECTION A:
     Am				  Am				  E
     |     |     |     |     |     |     |     |     |     |     |     |     |
    e-------8----10--8----10|----8-----8-10-----8---|-------7-----8--7----8-|
    b------10----10-10----10|---10----10-10----10---|-------9-----9--9----9-|
    g-------9-----9--9-----9|----9-----9--9-----9---|-------7-----7--7----7-|
    D-----------------------|-----------------------|-----------------------|
    A-----------------------|-----------------------|7----------------------|
    E-----------------------|-----------------------|-----------------------|…
  • Intro: Capo on 5th fret, play 4 times
     
    Am
    |(5)--------------------------------------------------------------------|
    |(5)--------------------------------------------------------------------|
    |(5)-------------------------------------s-7-7-s------------------------|
    |(7)-----7-7-7-7-7-s-9-9-9-9-s-10------------10-s-9-9-s-7---------------|
    |(7)--------------------------------------------------------------------|
    |(5)--5-----------------------------------------------------------------|
    
    Gm7
    |------------------------------------------------------------------------|
    |------------------------------------------------------------------------|
    |------------------------------------------------------------------------|
    |-----5-----5--5--5-h-7--7--7-s-9-9-s-10-10-s-9-9-7-7-7-s-5--------------|
    |------------------------------------------------------------------------|
    |------------------------------------------------------------------------|
    
    Am…
  • Em
    Rodando por la vida
    
                          D
    Como un pobre peregrino
    
                                               C
    Que le han cerrado la puerta
    
                                                    B7
    Ya no me queda ni un…
  • "Somos gitanos"
    
    [Соло 1]
      Em7                                       Dsus4                D
    ||-10-7-7-----------------|-10-7-7---------|-----------------------|
    ||--------10-10-8p7-------|--------10-10-8-|-13-10-10--------------|
    ||------------------9p7h9-|----------------|----------12-12-12p11-9|
    ||------------------------|----------------|-----------------------|
    ||------------------------|----------------|-----------------------|
    ||------------------------|----------------|-----------------------|…
  • (Capo on 7)
    
    (Lyrics are VERY inexact)
    
    Intro:
    
    --x--10-10--x-------x--9--9--x------x--8--8--x----x--7--7----------|
    --x--8---8---x-------x--8--8--x------x--8--8--x----x--8--8---------|
    --x--9---9---x-------x--9--9--x------x--9--9--x----x--9--9---------|
    -----9---9---------------9--9-------------9--9-----------9--9------|
    7-------------------7-----------------7---------------7------------|
    -------------------------------------------------------------------|
    
    (repeat)
    
    ----x---7---7---x-------x---7---7---x-|
    ----x---7---7---x-------x---7---7---x-|
    ----x---8---8---x-------x---8---8---x-|
    ----x---9---9---x-------x---9---9---x-|
    ----x---9---9---x-------x---9---9---x-|
    7---x---7---7---x---7--x---7---7---x--|
    
    (repeat)
    
    Em
    A…
  • Tuning: Eb Ab Db Gb Bb eb
    
    Intro 1:
    |----------------------|---------------------|--------2-------------|
    |----------------------|---------------------|------2---------------|
    |--------2----------1--|-------2----------1--|----2--------------1--|
    |------0----------2----|------0----------2---|--0--------------2----|
    |----4----------4------|----4----------4-----|---------------4------|
    |--2----------0--------|--2----------0-------|-------------0--------|
    
    |-------------------|----------------5-|
    |--------2--------3-|-------2------2---|
    |------4--------4---|-----4------4-----|
    |----2--------2-----|---2--------------|
    |--0--------0-------|-0--------0-------|
    |-------------------|------------------|
    
    
    Intro…
Наверх