Аккорды «Gob»

Gob
Панк-группа из Барнаби, Британская Колумбия, сформированная в 1994 году. Их сингл I Hear You Calling был вставлен в игру NHL 2002. Группа часто выступала на летних фестивалях Vans Warped Tour. История группы начинается, когда в средней школе в Лэнгли (Британская колумбия, Канада) встретились Тео Гоутзинакис и Том Такер. С появлением ударника Патрика Пазаны (Patrick Paszana) и басиста Келли Маккаули (Kelly Macauley) группа выпустила в 1994 году диск и девятью треками. После из-за личных разногласий… Читать полностью... Панк-группа из Барнаби, Британская Колумбия, сформированная в 1994 году. Их сингл I Hear You Calling был вставлен в игру NHL 2002. Группа часто выступала на летних фестивалях Vans Warped Tour. История группы начинается, когда в средней школе в Лэнгли (Британская колумбия, Канада) встретились Тео Гоутзинакис и Том Такер. С появлением ударника Патрика Пазаны (Patrick Paszana) и басиста Келли Маккаули (Kelly Macauley) группа выпустила в 1994 году диск и девятью треками. После из-за личных разногласий Келли был заменен на Джэми Фокса, и в 1995 году Gob выпустили альбом Too Late... No Friends. Альбом был большим успехом для группы, они стали давать концерты и много выступать на фестивалях в поддержку своего альбома. Вскоре после выхода пластинки Gob выпустили ограниченное издание Green Beans and Almonds, содержащее всего четыре песни. После ухода одного из участников группы, к ним присоединился ударник Гэйб Мэнтли (прежде он играл в Ванкуверской хардкор группе Brand New Unit), и Gob записали альбом How Far Shallow Takes You. Он был более темным и звучал тяжелее, чем предыдущие. Альбом хорошо продавался в Канаде, и у группы появилось много новых фанатов. Первым синглом с альбома была песня Beauville, второй был What To Do. Gob спели песню The Rolling Stones, Paint It Black, которую можно услышать в фильме по Стивену Кингу 2004 года «Участь Салема» (Salem’s Lot). World According to Gob вышел в 2001 году. Этот альбом стал самым успешным альбомом Gob по настоящее время. Звук на нем немного отличался от того панк-рока, который они играли до этого. Группа выпустила три сингла с этой пластинки: For The Moment, I Hear You Calling и No Regrets. В октябре 2002 года они выпустили F.U. EP. В 2004-м Крэк Вуд оставил группу, чтобы играть на гитаре у Аврил Лавин. Последний альбом Muertos Vivos был выпущен в США 27 ноября 2007 года. Состав группы: Том Такер (Tom Thacker) - гитара, вокал Тео Гоутзинакис (Theo Goutzinakis) - гитара, вокал Гэйб Мэнтли (Gabe Mantle) - барабаны, бэк-вокал Тайсон Мако (Tyson Maiko) – бас-гитара, бэк-вокал Дискография: Self-Titled (1994) Too Late... No Friends (1995) Ass Seen on TV (1997) How Far Shallow Takes You (1998) World According to Gob (2001) F.U. EP (2002) Foot in Mouth Disease (2003) Muertos Vivos (2007) Скрыть...
Популярные аккорды Gob:
алфавиту | просмотрам | случайно
  • |---------------------------------------------------------|
    |---------------------------------------------------------|
    |---------------------------------------------------------|
    |----4---4-4---4/6--4-------------------------------------|
    |-/6---6-----6--------6-6-6-64-22---22---4/6--4-6--422--|
    |----------------------------------4----4----------------4|
    
    |---------------------------------------|
    |---------------------------------------|
    |---------------------------------------|
    |---------------------------------------|
    |-22---4/6--4-6--422---22---4/6--44--2-|
    |----4----------------4----4------------|
    
    |----------------------------------------------------------|
    |----------------------------------------------------------|
    |----------------------------------------------------------|
    |-444444--6------------------------------------------------|
    |-222222--4--666666--222222--666666--222222--666666--222222|
    |------------444444--000000--444444--000000--444444--000000|
    Bass…
  • Tuning: Eb (tune all your strings down a half tone)
    
    
    This is a brand new one off of Foot In Mouth Disease.
    
    Riff 1
    eb|-----------------------00--00--00--00--------------------------------------|
    Bb|-----------------------00--00--00--00--------------------------------------|
    Gb|-4444------7777------------------------------------------------------------|
    Db|-4444-4444-7777-7777-2222222222222222--------------------------------------|
    Ab|-2222-4444-5555-7777-2222222222222222--------------------------------------|
    Eb|------2222------5555-0000000000000000--------------------------------------|
    
    
    Riff…
  • Riff 1
    E:-------------------------------------------------------|
    B:-------------------------------------------------------|
    G:-------------------------------------------------------|
    D:----------77777777-55555555-777-6-4--------------------|
    A:-77777777-55555555-77777777-555-4-2--------------------|
    E:-55555555----------------------------------------------|
    
    
    Riff…
  • Eb
    Dont make me listen to the stupid broken record again
    The needle skippin and repeatin' never reaching the end
    I know your bitchin and complainin like you got it so tough
    We're sick of all your cryin will you ever shut…
  • Drop D tuning
    
    
    Intro:
    Guitar 1 Guitar 2
    e|------------|---------------------------------------------------------6----|
    B|------------|---7------7-----7--------7-----7-----7-------7-----7----------|
    G|---4--3-----|-------6-----6-----6--------6-----6-----6-------6-----6-------|
    D|---------4--|--------------------------------------------------------------|
    A|------------|--------------------------------------------------------------|
    E|------------|--------------------------------------------------------------|
    Guitar…
  • Intro:do twice      |do once
    e|gui(1)------------|gui(2)-------------------------------------------|
    B|------------------|-------------------------------------------------|
    G|-9---4-3---9-11---|-4-6-4-6-8-6-4-4-------3-4-----------------------|
    D|-9-4-4-3-6-9-11-9-|-----------------6-8-6---------------------------|
    A|-7-4-2-1-6-7-9--9-|-------------------------------------------------|
    E|---2-----4------7-|-------------------------------------------------|
    
    
    Verse:…
  • Intro/Verse
    
    Eb|---------------------------|
    Bb|---------------------------|
    Gb|--------------6------------|
    Db|--2--4--4--4--6--7---------|
    Ab|--2--4--4--4--4--7---------|
    Eb|--0--2--0--2-----5---------|
    
    
    Chorus
    
    Eb|-------------------------------|
    Bb|-------------------------------|
    Gb|--------------6-6--------------|
    Db|---2-----4-4--6-6--7-7--9-9----|…
  • Intro:
    |----------------------------------------------------------|
    |--2-2-2-3-2-0-2-2-2-3-2-0-2-2-2-3-2-0-2-2-2-3-2-0---------|
    |--2-2-2-2-2---2-2-2-2-2---2-2-2-2-2---2-2-2-2-2-----------|
    |----------------------------------------------------------|
    |----------------------------------------------------------|
    |----------------------------------------------------------|
    
    
    Verse…
  • Intro
    
    e|--------------------------|
    B|--------------------------|
    G|--------------------------|
    D|7-----------77------------|
    A|7(let Ring)-77(let Ring)--|
    E|5-----------55------------|
    
    
    Verse
    
    e|----------------|
    B|----------------|
    G|77-55-44--(77)--|
    D|77-55-44--(77)--|
    A|55-33-22--(55)--|
    E|----------------|
    
    
    Riff
    
    e|----------|
    B|----------|
    G|----------|
    D|2224246---|
    A|----------|
    E|----------|
    
    
    Chorus
    
    e|-----------------------------|
    B|-----------------------------|
    G|------------77777777---------|
    D|77777-55555-77777777---------|
    A|77777-55555-55555555---------|
    E|55555-33333------------------|
    
    
    Outro
    
    e|-----------------------|
    B|-----------------------|
    G|-----------------------|
    D|7777777777777-(55)5----|
    A|7777777777777-(55)5----|
    E|5555555555555-(33)3----|
    
    
    Order:
    Intro…
  • Key: Ab
    
    Tuning: Standard EADGBe
    
    Chords used:
    Ab -   466544
    Eb -   x68886
    Fm -   133111
    C# -   x46664
    Bbm -  x13321
    Eb/G - 365xx
    
    
    Verse 1:
                Ab
    you got the first mile 
            Eb
    made it htrough…
  • Tuning: Eb Ab Db Gb Bb Eb
    
    x = muted notes
    
    
    Intro 
    Guitar 1
    Eb------------------------------------------------------------------------------
    Bb-----------------4-----------------------------------4------------------------
    Gb------------------------------------------------------------------------------
    Db------------------------------------------------------------------------------
    Ab---6-6-6-6-6-6-6---6-6-6-6-6-6-6------0-0-0-0-0-0-0------0-0-0-0-0-0-0--------
    Eb------------------------------------------------------------------------------
    
    Eb------------------------------------------------------------------------------
    Bb------------------4------------------------------------4----------------------
    Gb------------------------------------------------------------------------------
    Db----------------------------------------2-2-2-2-2-2-2-------------------------
    Ab---4-4-4-4-4-4-4-----4-4-4-4-4-4-4--0---------------------2-2-2-2-2-2-2---0---
    Eb------------------------------------------------------------------------------
    
    Guitar…
  • Intro (just right after the small guitar bit)
    
    G---------------------------------------------------
    D---------------------------------------------------
    A222222222222---------------------------------------
    E-------------444444444444-000000000000-222222222222
    
    
    Verse
    
    Gb-----------------------------
    Db-----------------------------
    Ab22222222222222---------------
    Eb--------------2222222-0000000
    
    
    Chorus
    
    Gb----------------------------
    Db--------------2222222-------
    Ab44444444444444-------2222222
    Eb----------------------------
    
    
    Verse
    
    Gb-----------------------------
    Db-----------------------------
    Ab22222222222222---------------
    Eb--------------2222222-0000000
    
    
    Chorus
    
    Gb----------------------------
    Db--------------2222222-------
    Ab44444444444444-------2222222
    Eb----------------------------
    
    The…
  • Intro part 1 (Light distortion)
    e|--------------------------------------|
    b|--------------------------------------|
    g|--------------------------------------|  x2
    d|--6-6--6-6--6-6--6-6-6--8-8--4-4------|
    a|--6-6--6-6--6-6--6-6-6--8-8--4-4------|
    E|--4-4--4-4--4-4--4-4-4--6-6--2-2------|
    
    part…
  • E------------------------------------------------------------------------------------------------
    B------------------------------------------------------------------------------------------------
    G------------------------------------------------------------------------------------------------
    D-6-6-6-6---8--8--8--8--8--8---6-6-----4-4-4-4----6-6---8--8--8--8--8--8---6-6---4-4-4-4---------
    A-4-4-4-4---6--6--6--6--6--6---4-4-----4-4-4-4----4-4---6--6--6--6--6--6---4-4---4-4-4-4---------
    D--------------------------------------------4-4-4-4--------------------------------------4-4-4-4
    
    
    E-----------------------------------------------------------------------------------------------------
    B-----------------------------------------------------------------------------------------------------
    G-----------------------------------------------------------------------------------------------------
    D---6-6-6-6---8--8--8--8--8--8---6-6-----4-4-4-4----6-6---8--8--8--8--8--8---6-6---4-4-4-4------------
    A---4-4-4-4---6--6--6--6--6--6---4-4-----4-4-4-4----4-4---6--6--6--6--6--6---4-4---4-4-4-4------------
    D----------------------------------------------4-4-4-4----------------------------------------4-4-4-4-…
  • Key: Bb, B
    
    Tuning: Standard EADGBe
    
    Chords used:
    Bb - x13331
    Eb - x68886
    F -  133211
    F# - 244322
    B -  x24442
    E -  022100
    
    
    Intro: Bb-- x2
    
    
    Verse 1:
    Bb
      I'd like to hang out 
         Eb         F
    with…
  • Key: Eb or F#
    
    Tuning: Standard EADGBe
    
    Chords used:
    Eb -  x68886
    C# -  x46664
    B -   x24442
    F# -  244322
    G#m - 466444
    Bb -  x13331
    Ebm - x68876
    
    
    Intro: Eb--C#--B--C#-- x2
    
    
    Verse 1:
    Eb…
  • Key: G#, B
    
    Tuning: Standard EADGBe
    
    Chords used:
    G# -   466544
    C# -   x46664
    G#m -  466444
    E -    022100
    B -    x24442
    C#m -  x46654
    A -    x02220
    F# -   244322
    B/Eb - x698xx
    
    
    Intro: G#--C#-- x4
    
    
    Verse…
  • Key: Ab
    
    Tuning: Standard EADGBe
    
    Chords used:
    Ab -   466544
    Eb/G - 365xxx
    Fm -   133111
    Eb -   x68886
    C# -   x46664
    C/E -  032xxx
    Cm -   x35543
    
    
    Intro: Drumbeats
    
    
    Verse 1:
    Ab     Eb/G          Fm
    let…
  • ***rest for guitars (0:00 - 0:05)***
    
    Riff A: (3 times)
    G--------------
    D-----------4--
    A-----6-6-6----
    E--4-----------
    
    
    Riff B: (once)
    A------------
    E--55-4-3-2--
    
    
    Riff A: (3 times)
    
    
    Riff C: (once)
    G------------
    D--77-6-5-4--
    A------------
    E------------
    
    
    ***break…
  • Key: F#
    
    Tuning: Standard EADGBe
    
    Chords used:
    Ebm -  x68876
    B -    x24442
    F# -   244322
    C# -   x46664
    G#m -  466444
    Bbm -  x13321
    C#/F - 143xxx
    
    
    Intro:
    
    Theo:
    Ebm-C#-Ebm-F#-Ebm-C#-B-C---#- x3
    Ebm-C#-Ebm-F#-Ebm-C#-B-----#…
  • INTRO:
    e|---------------------------------------------------------------------------|
    B|---------------------------------------------------------------------------|
    G|----------3-5---5-3-----------------------------3-5---5-3------------------|
    D|----5-6---------------6-5---6-5-----------5-6---------------6-5---8-6-5----|
    A|--3-----4-----------6-----6-----6-------3-----4-----------6-----6----------|
    E|--------------4-------------------------------------4----------------------|
    
    
    VERSE…
  • Riff A: (twice)
    A--5555---------5555--2222--
    E----------3333-------------
    
    ***rest***
    
    
    Riff B: ( 4 times)
    A--55555555--------------22222222----------------
    E---------------33333333---------------55555555--
    
    
    Riff…
  • Key: F#
    
    Tuning: Standard EADGBe
    
    Chords used:
    F# -  244322
    C# -  x46664
    Ebm - x68876
    E -   022100
    B -   x24442
    G#m - 466444
    
    
    Intro: F#--, F#--G#m-Ebm-B- x2, F#--G#m-Ebm-B-C#
    
    
    Verse 1:
    F#…
  • Key: Bb
    
    Tuning: Standard EADGBe
    
    Chords used:
    Gm - 355333
    G# - 466544
    Bb - x13331
    Eb - x68886
    F -  133211
    
    
    Verse 1:
    Gm
      You used to shine like a 
    G#
    diamond all the time 
            F
    But now you forgot…
  • Intro:
    e|--------------------------------------------------------------------|
    B|--------------------------------------------------------------------|
    G|--------------------------------------------------------------------|
    D|--------------------------------------------------------------------|
    A|-3-3---3-3-3---3-3-3-3-3----3(10-strums)----------------------------|
    E|-----3-------3-----------3------------------------------------------|
    
    
    Verse:…
  • Key: C
    
    Tuning: Standard EADGBe
    
    Chords used:
    F -  133211
    G -  320003
    Am - x02210
    C -  x02210
    Dm - xx0231
    Bb - x13331
    A -  x02220
    Eb - x68886
    G# - 466544
    
    
    Intro: Drumbeats
    
    F-Dm-Am--C-Dm-Am- x4
    
    Guitar…
  • Key: G#
    
    Tuning: Standard EADGBe
    
    Chords used:
    G# -  466544
    C# -  x46664
    F# -  244322
    Eb -  x68886
    Bbm - x13321
    Fm -  133111
    
    
    Intro: G#--C#-- x4
    
    Guitar 2:
    e|-------------------------------|
    B|-----4-------4---2---1---2---1-|
    G|-1-1---1-1-1---1---1---1---1---|
    D|-------------------------------|…
  • Intro ( get rythm from the CD, it’s pretty obvious )
    |----------------------|-----------------6--8----|
    |----------------------|---------9-6-9-6---------|
    |----------------------|-----------------------5-|
    |----------------------|-------------------------|
    |--3--6--4--8-6--6--4--|-3--6--4-----------------|
    |----------------------|-------------------------|
    
    Intro…
  • Intro:
    e:------------------------------------------------------------------
    B:------------------------------------------------------------------
    G:-----5-------5-------5-------5-------5-------5-------5-------5----
    D:---6---6---6---6---6---6---6---6---6---6---6---6---6---6---6---6--
    A:-8-------8-------4-------4-------8-------8-------4----------------
    E:---------------------------------------------------------4--------
    
    e:------------------------------------------------------------------
    B:------------------------------------------------------------------
    G:-----5-------5-------5-------5-------5-------5-------5-6----------
    D:---6---6---6---6---6---6---6---6---6---6---6---6---6---6----------
    A:-8-------8-------4-------4-------8-------8-------4-----8----------
    E:------------------------------------------------------------------
    
    
    2nd…
  • Riff A: (twice)
    A--2222---------------------
    E---------2222--0000--2222--
    
    
    Riff B: (twice)
    A--2222---------------------
    E--------0000--2222-44-4h5--
    
    
    Riff C: (4 times)
    A--4444---------------------
    E--------0000--2222-44-4h5--
    
    
    Riff…
  • INTRO
    Bass Line:
    |----------------------------------------------------------------|
    |-------------------2--3-----2---------------------2-------------|
    |--3--3--3--3--3-------------------3--3--3--3--3------0----------|
    |-------------------------------------------------------------3--|
    
    Guitar
    Play…
  • Intro:(X2) 
    
       e---------------------------- 
       B-----oh3h5-5-3-------0h3h5-5-7-- 
       G--0--------------0------------- 
       D--0--------------0------------ 
       A--x--------------x---------- 
       E--3--------------3------------…
  • Key: D
    
    Tuning: Standard EADGBe
    
    Chords used:
    D -    xx0232
    A -    x02220
    Bm -   x24432
    F#m -  244222
    G -    320033
    Em -   022000
    
    
    Intro:
    
    Silence: G--Em--G--Bm-- x2
    
    with drums: 
    G--Em--G--Bm-F#m
    G--Em--G--Bm-D
    
    then:…
  • Riff A: (once)
    A-------------------------------------|
    E-0000000000000000-33333333-55555555--|
    
    
    Riff B: (4 times)
    A--------------33333333----------------55555555---|
    E-00000000---------------33333333-----------------|
    
    
    Riff…
  • Key: E
    
    Tuning: Standard EADGBe
    
    Chords used:
    C#m - x46654
    A -   x02220
    E -   022100
    B -   x24442
    F#m - 244222
    Ebm - x68876
    
    
    Intro: C#m--
    
    
    Verse 1: Chordless
    We feel sick
    Broken down
    Drug ourselves
    Underground
    No…
  • Key: E, A
    
    Tuning: Standard EADGBe
    
    Chords used:
    F#m - 244222
    A -   x02220
    C#m - x46654
    D -   xx0232
    Bm -  x24432
    E -   022100
    
    
    Intro:
    
    Bass: F#m-A-C#m-A- x2
    
    Guitar: E-A-C#m-A-E-C#m-A-E-, 
    C#m-- x4
    
    
    Verse:
    A…
  • Chords Used
      A  Ab B  D  Db E  F  Gb
    e------------------------
    B------------------------
    G-------4--7--6----------
    D-7--6--4--7--6--2--3--4-
    A-7--6--2--5--4--2--3--4-
    E-5--4-----------0--1--2-
    
    
    Palm Mute all Chords Except…
  • Key: G#
    
    Tuning: Standard EADGBe
    
    Chords used:
    G# -  466544
    Bbm - x13321
    Fm -  133311
    C# -  x46664
    F# -  244322
    
    
    Intro: G#-Bbm- x4
    
    Guitar 2:
             G#                       Bbm
    e|-8-8-8-8-9-9-9-9-|-8-8-8-8-9-9-9-9-8-8-8-8-6-6-6-6-|
    B|-9-9-9-9-9-9-9-9-|-9-9-9-9-9-9-9-9-9-9-9-9-9-9-9-9-|
    G|-8-8-8-8-8-8-8-8-|-8-8-8-8-8-8-8-8-8-8-8-8-8-8-8-8-|
    D|-----------------|---------------------------------|…
  • Intro:do twice     
    e|guit(1)------|guit(2)-----------------------------------------------|
    B|-------------|------------------------------------------------------|
    G|-9---9-------|------------------------------------------------------|
    D|-9-9-9-9-7-6-|--9-9bend-9--9-8-9-8-9-8------------------------------|
    A|-7-9-7-9-7-6-|------------------------------------------------------|
    E|---7---7-5-4-|------------------------------------------------------|
    
    
    Verse:…
  • Verse:
    e|--------------------------------------------------------------------|
    B|--------------------------------------------------------------------|
    G|---4---------8---8--------------------------------------------------|
    D|-4-4-5---4-6-8-9-8-9------------------------------------------------|
    A|-4-2-5-2-4-6-6-9-6-9------------------------------------------------|
    E|-2---3-0-2-4---7---7------------------------------------------------|
    
    
    Chorus:
    e|--------------------------------------------------------------------|
    B|--------------------------------------------------------------------|
    G|---4----------------4---------8---8---8-----------------------------|
    D|-4-4-5------------4-4-5---4-6-8-9-8-9-8-9-6-5-----------------------|
    A|-4-2-5-2----------4-2-5-2-4-6-6-9-6-9-6-9-6-5-----------------------|
    E|-2---3-0-do-twice-2---3-0-2-4---7---7---7-4-3-----------------------|
    
    
    Verse2:
    e|--------------------------------------------------------------------|
    B|--------------------------------------------------------------------|
    G|---4-------8---8-----4---------8---8---8----------------------------|
    D|-4-4-5---4-8-9-8-9-4-4-5---4-6-8-9-8-9-8-9-9------------------------|
    A|-4-2-5-2-4-6-9-6-9-4-2-5-2-4-6-6-9-6-9-6-9-9------------------------|
    E|-2---3-0-2---7---7-2---3-0-2-4---7---7---7-7------------------------|
    
    
    Outro:
    e|--------------------------------------------------------------------|
    B|--------------------------------------------------------------------|
    G|-4------------------------------------------------------------------|
    D|-4------------------------------------------------------------------|
    A|-2-2----------------------------------------------------------------|
    E|---0----------------------------------------------------------------|…
  • Key: C
    
    Tuning: Standard EADGBe
    
    Chords used:
    C-   x32010
    Em - 022000
    F -  133211
    G -  320003
    
    
    Intro:
    
    Bass: G-- x8
    
    Guitar: C--Em--F--G--C--F-G-G-G-
    
    With Drums: C--Em--F--G-- x2
    
    
    Verse 1:
    C     Em
    You…
  • Key: A, Bb
    
    Tuning: Standard EADGBe
    
    Chords used:
    A -   x02220
    D -   xx0232
    E -   022100
    F -   133211
    Bb -  x13331
    Eb -  x68886
    F# -  244322
    
    
    Intro: 
    A--D--A--D--A--D--E--F-E(hold)
    
    
    Verse 1:
        A
    Terpsichore
    D
    You…
  • Key: D
    
    Tuning: Standard EADGBe
    
    Chords used:
    Bm -   x24432
    C -    x32010
    G -    320033
    D -    xx0232
    Em -   022000
    F#m -  244222
    A -    x02220
    D/F# - 2x023x
    Am -   x02210
    
    
    Intro: Bm---C- x2
    
    
    Verse 1:
    Bm…
  • Key: E, D
    
    Tuning: Standard EADGBe
    
    Chords used:
    E -  022100
    B -  x24442
    Em - 022000
    G -  320033
    Bm - x24432
    D -  xx0232
    
    
    Intro: E---B--E--G--Bm--Em--G--
    
    
    Verse 1:
             Bm
    It's the same…
  • E---------------------------------------------------------------------------|
    B---------------------------------------------------------------------------|
    G---------------------------------------------------------------------------|
    D--------5-5-4-4-5-5------5-5-4-4-5-5------5-5-4-4-5-5--------5-5-4-4-5-5---|
    A--------------------------------------3-3---------------7-7----------------|
    E--3-3----------------5-5---------------------------------------------------|…
  • Key: Bb
    
    Tuning: Standard EADGBe
    
    Chords used:
    Ab -  466544
    F# -  244322
    Bb -  x13331
    C# -  x46664
    Eb -  x68886
    F -   133211
    Abm - 466444
    Ebm - x68876
    
    
    Intro: Car Starting then Drumbeats
    Ab---Ab---Ab-F#-Ab-
    
    Distortion:…
  • Key: A
    
    Tuning: Drop D
    
    Chords used: Drop D Only
    F# - 444xxx
    D -  000xxx
    E -  222xxx
    B -  999xxx
    G -  555xxx
    A -  777xxx
    F -  333xxx
    
    Chords used: in Standard EADGBe
    F# - 244222
    D -  xx0232
    E -  022100
    B…
  • Key: Eb, Bb
    
    Tuning: Standard EADGBe
    
    Chords used:
    Ab - 466544
    Eb - x68886
    F -  133211
    Bb - x13331
    Gm - 355533
    C# - x46664
    
    
    Intro: G#--Eb--G#--Eb-F-
    
    Guitar 2:
    e|-----------------3-----4-----3-1-|
    B|-4-3---4-3---4-----4-------4-----|
    G|-----3-----3---3-----3---3-------|
    D|---------------------------------|
    A|---------------------------------|
    E|---------------------------------|…
  • Key: F#
    
    Tuning: Standard EADGBe
    
    Chords used:
    Ebm - x68876
    F# -  244322
    G#m - 466444
    B -   x24442
    E -   022100
    
    
    Intro: Ebm F# G#m B  x4
    
    
    Verse 1:
         Ebm
    Holy mother come
        F#
    and rip out my
    G#m…
  • Intro:
    e|---------------------------------------|----------------------------|
    B|---------------------------------------|----------------------------|
    G|------------------|-7-9-11-12-14-12-11-|----------------------------|
    D|bass--------------|-7-9-11-12-14-12-11-|----------------------------|
    A|-5-7-9-10-12-10-9-|-5-7-9--10-12-10-9--|----------------------------|
    E|------------------|--------------------|----------------------------|
    
    
    Verse:
    e|--------------------------------------------------------------------|
    B|--------------------------------------------------------------------|
    G|-7---7-12-11-12--7---7-12-11---4---4--9-7-9--4---4-9-7--------------|
    D|-7-7-7-12-11-12--7-7-7-12-11---4-2-4--9-7-9--4-2-4-9-7--------------|
    A|-5-7-5-10-9--10--5-7-5-10-9----2-0-2--7-5-7--2-0-2-7-5--------------|
    E|---5---------------5---------,--------------------------------------|
    
    
    Chorus:
    e|--------------------------------------------------------------------|
    B|--------------------------------------------------------------------|
    G|---7---5------------------------------------------------------------|
    D|-5-7-7-5------------------------------------------------------------|
    A|-5-5-7-3------------------------------------------------------------|
    E|-3---5--------------------------------------------------------------|
    
    
    Solo:
    e|--------------------------------------------------------------------|
    B|----------------------------3-2-3--3-2-3--3-2-3--3-2---3------------|
    G|-4-2-4--4-2-4--4-2-4--5-4-2--------------------------3--------------|
    D|--------------------------------------------------------------------|
    A|--------------------------------------------------------------------|
    E|--------------------------------------------------------------------|
    
    Intro,Verse,Chorus,Intro,Verse,Chorus,Solo/Chorus…
  • Intro
    G:--------------0>--2-2-0-------
    D:--0>--2>--4>-------------4--
    A:----------------------------------
    E:----------------------------------
     
    
    Verse
    G:----------------------------------------|-------------------------------------------
    D:--0>-----0>--5-5-4-5--0>------0>--5-5-4-|-----------2-2-1-2----------
    A:-----0>-------------------0>------------|-2>--0>--2>--------2>-0>-2>--
    E:----------------------------------------|-------------------------------------------…
  • Key: Eb
    
    Tuning: Standard EADGBe
    
    Chords used:
    Cm -   x35543
    Bb/D - x587xx
    Gm -   355333
    Bb -   x13331
    G# -   466544
    Eb -   x68886
    
    
    Intro: Cm-Bb/D-Bb-G#- x4
    
    
    Verse 1:
      Cm          Bb/D   Bb          G#
    I…
  • tune guitars down to
    (Eb Ab Db Gb Bb eb)
    
    
        Intro/Riff A
    
    eb|--0-0-0--0-0-0-0-0-0-0-0----------4-------|
    Bb|-5-7-8-10-8-7-5-5-4-5-7-5h4-4h6h7--7p6p4h5|
    Gb|------------------------------------------|
    Db|------------------------------------------|
    Ab|------------------------------------------|
    Eb|------------------------------------------|…
  • Key: Bb
    
    Tuning: Standard EADGBe
    
    Chords used:
    Gm -   355333
    F -    133211
    Eb -   x68886
    Bb -   x13331
    Cm -   x35543
    Bb/D - x587xx
    F/A -  x032xx
    
    
    Intro: Gm-Bb/D-Gm-Bb/D-Eb--
    Gm-Bb/D-Gm-Bb/D-Cm--Bb/D-Eb--Cm--Bb/D-Eb-
    
    
    Verse…
  • Key: C#
    
    Tuning: Standard EADGBe
    
    Chords used:
    F# -  244322
    C# -  x46664
    Bbm - x13321
    G# -  466544
    
    
    Intro:
    
    Drumbeats
    
    F#--C#-G#- x2
    
    
    Verse 1:
    F#
      Hey mom, concerned
    with what I've become
    C#…
  • Key: B
    
    Tuning: Standard EADGBe
    
    Chords used:
    B -   x24442
    F# -  244322
    G#m - 466444
    E -   022100
    C#m - x46654
    Ebm - x68876
    
    
    Intro: 
    
    Piano: B--F#-E- x2
    
    Then B--F#-E- x2 E--
    
    
    Verse 1:
    B
    How long…
  • Key: E
    
    Tuning: Standard EADGBe
    
    Chords used:
    E -   022100
    G#m - 466444
    A -   x02220
    B -   x24442
    
    
    Intro: E-B-G#m--B-E--G#m-A--
    
    
    Verse:
    E            B
      Do you know 
    G#m          B
       what it is
    E…
  • Key: Eb, C, Bb
    
    Tuning: Standard EADGBe
    
    Chords used:
    Eb - x68886
    F -  133211
    Cm - x35543
    G# - 466544
    Bb - x13331
    C -  x32010
    G -  320003
    Am - x02210
    F -  133211
    Bb - x13331
    
    
    Intro: Eb--
    
    Guitar 2:…
  • Key: C#
    
    Tuning: Standard EADGBe
    
    Chords used:
    Bbm - x13321
    F# -  244322
    C# -  x46664
    G# -  466544
    Fm -  133111
    
    
    Intro:
    
    Theo: Bbm-F#-Bbm-C#- x2
    
    Tom:
    e|-----1------1-|
    B|-2-4----2-4---|
    G|--------------|
    D|--------------|
    A|--------------|
    E|--------------|
    
    
    Verse…
  • Key: Bb, C#, F#
    
    Tuning: Standard EADGBe
    
    Chords used:
    Bb    x13331
    Eb    x68886
    G#    466544
    F#    244322
    C#    x46664
    Ebm   x68876
    B     x24442
    
    
    Intro: 
    Bb  Eb Bb Bb  G# Bb  x2
    F# C# G# Eb 
    Bb  Eb Bb…
  • Key: Eb
    
    Tuning: Standard EADGBe
    
    Chords used:
    Cm -   x35543
    Eb -   x68886
    G# -   466544
    Eb/G - 365xxx
    Bb -   x13331
    Gm -   355333
    Fm -   133111
    
    
    Intro: Cm-- x6
    
    Guitar 2:
    e|---------------------3---4---1-|
    B|-----3---4---3-----------------|
    G|-------------------------------|
    D|-------------------------------|…
  • Key: B
    
    Tuning: Standard EADGBe
    
    Chords used:
    G#m - 466444
    Eb -  x68886
    C#m - x46654
    F# -  244322
    B -   x24442
    E -   022100
    
    
    Intro: G#m--Eb-- x4
    
    
    Verse 1:
           G#m
    I pour salt in your wounds
        Eb
    and…
  • Key: F#
    
    Tuning: Standard EADGBe
    
    Chords used:
    Ebm -  x68876
    B -    x24442
    F# -   244322
    C# -   x46664
    G#m -  466444
    Bb -   x13331
    Bbm -  x13321
    E -    022100
    Bb/D - x587xx
    
    
    Intro: Ebm--C#-Ebm--C#-Ebm--C#-Ebm---|
    Ebm--C#-Ebm--C#-Ebm--C#-Ebm----------|
    Ebm--C#-Ebm--C#-Ebm--C#-Ebm----------|C#(hold)
    
    
    Verse…
  • Key: C#
    
    Tuning: Standard EADGBe
    
    Chords used:
    Bbm - x13321
    B -   x24442
    G -   320033
    G# -  466544
    F# -  244322
    A -   x02220
    Fm -  133311
    Ebm - x68876
    
    
    Intro:
    
    Guitar 2:
    e|-----6-------6---|
    B|-6-7---7-6-7---7-|
    G|-----------------|
    D|-----------------|…
  • Key: Ab
    
    Tuning: Standard EADGBe
    
    Chords used:
    Eb -   x68886
    Fm -   133111
    C# -   x46664
    F# -   244322
    G# -   466544
    C#/F - 143xxx
    
    
    Intro:
    
    Tom: Eb-Fm-Eb-C------#-Eb-Fm-Eb-G#(hold)
    Eb-Fm-Eb-C#-Eb-Fm-F--#
    
    
    Theo:
    e|----13----|----13----|-14-13----|-16-13----|
    B|-------14-|-------14-|-------14-|-------14-|
    G|-13-------|-13-------|----------|----------|
    D|----------|----------|----------|----------|
    A|----------|----------|----------|----------|
    E|----------|----------|----------|----------|
    
    
    Verse…
  • Key: C#
    
    Tuning: Standard EADGBe
    
    Chords used:
    Bbm - x13321
    C# -  x46664
    Ebm - x68876
    F# -  244322
    
    
    Verse 1:
    Bbm       C#
    I've been through 
         Ebm
    here many times
        Bbm    F#         C#
    But you've…
  • Key: G#, B
    
    Tuning: Standard EADGBe
    
    Chords used:
    G# -   466544
    C# -   x46664
    G#m -  466444
    E -    022100
    B -    x24442
    C#m -  x46654
    A -    x02220
    F# -   244322
    B/Eb - x698xx
    
    
    Intro: G#--C#-- x4
    
    
    Verse…
  • Key: Bb
    
    Tuning: Standard EADGBe
    
    Chords used:
    Bb -   x13331
    Fm -   133111
    F -    133211
    Cm -   x35543
    Eb -   x68886
    Gm -   355333
    G# -   466544
    Bb/D - x587xx
    
    
    Verse 1:
    Bb               Fm       Cm
      Every…
  • Key: C# then Eb
    
    Tuning: Standard EADGBe
    
    Chords used:
    Bbm - x13321
    F# -  244322
    C# -  x46664
    G# -  466544
    Fm -  133111
    Ebm - x68876
    Cm -  x35543
    Gm -  355333
    Bb -  x13331
    
    
    Intro: C#-- x4
    
    
    Verse 1:
    C#…
  • Key: Bb
    
    Tuning: Standard EADGBe
    
    Chords used:
    F -    133211
    Cm -   x35543
    Eb -   x68886
    Bb -   x13331
    G# -   466544
    Gm -   355333
    Bb/D - x587xx
    
    
    Intro: F-Cm-Eb-Bb- x4
    Bb--G#-Bb--G#-Bb--Gm--Eb--
    
    
    Verse…
  • Key: C then D
    
    Tuning: Standard EADGBe
    
    Chords used:
    Am - x02210
    F -  133211
    C -  x32010
    G -  320033
    Bm - x24432
    D -  xx0232
    A -  x02220
    
    
    Intro:
    Am        F             C G
    oh! Ellin what can i do?
    Am…
  • Key: C#
    
    Tuning: Standard EADGBe
    
    Chords used:
    G# -  466544
    Bbm - x13321
    F# -  244322
    Fm -  133111
    Ebm - x68876
    C# -  x46664
    E -   022100
    
    
    Intro:
    
    Marching Drums: Bbm---4, Bbm--
    
    Punk Drums: Bbm--8,
    G#-Bbm-F#-Fm-G#-Bbm-F#-Fm-G#-Bbm-F#-Fm---C#--Ebm--#-x2
    G#-Bbm--G#-Bbm--G#-Bbm--C#--Ebm--x4---------------#
    
    Bass…
  • Key: F#
    
    Tuning: Standard EADGBe
    
    Chords used:
    C# -   x46664
    Ebm -  x68876
    F# -   244322
    C#/F - 143xxx
    B -    x24442
    G#m -  466444
    E -    022100
    
    
    Intro:
    
    Part 1:
    
    Craig: Bass Solo
             Ebm
    G|------------------|
    D|------1-1-1-4-1-1-|
    A|-4-6--------------|…
  • Key: G#
    
    Tuning: Standard EADGBe
    
    Chords used:
    Fm -  133111
    C# -  x46664
    Bbm - x13321
    Eb -  x68886
    G# -  466544
    F# -  244322
    
    
    Intro: Fm-C#-Eb-Bbm- x2
    
    
    Verse 1:
      Fm          C#              Eb Bbm
    I know…
  • Key: E
    
    Tuning: Standard EADGBe
    
    Chords used:
    C#m -  x46654
    B -    x24442
    A -    x02220
    E -    022100
    G#m -  466444
    F#m -  244222
    D -    xx0232
    G# -   466544
    E/G# - 476xxx
    
    
    Intro: C#m--A-E-A-C#m-A-E-D-A-B
    
    Guitar…
  • Key: B
    
    Tuning: Standard EADGBe
    
    Chords used:
    G#m - 466444
    E -   022100
    B -   x24442
    F# -  244322
    C#m - x46654
    D -   xx0232
    
    
    Verse 1:
    G#m
      Find yourself down 
                 E B
    on your knees again
    G#m…
  • Key: F
    
    Tuning: Standard EADGBe
    
    Chords used:
    F -  133211
    Bb - x13331
    Dm - xx0231
    C -  x32010
    Am - x02210
    
    
    Verse 1:
    F                      Bb
    You see everything you wanna see
             F
    Woah oh! You hear…
  • Key: B then C#
    
    Tuning: Standard EADGBe
    
    Chords used:
    B -   x24442
    C#m - x46664
    G#m - 466444
    E -   021100
    F# -  244322
    C# -  x46664
    Ebm - x68876
    Bbm - x13321
    
    
    Intro:
    
    Bass:
          B        C#m       G#m…
  • Key: C# then D
    
    Tuning: Standard EADGBe
    
    Chords used:
    Bbm - x13321
    F# -  244322
    C# -  x46664
    G# -  466544
    Ebm - x68876
    Fm -  133111
    F/A - x032xx
    B -   x24442
    Eb -  x68886
    G -   320033
    D -   xx0232
    Em -  022000
    Bm…
  • Key: F#, C#, Bb
    
    Tuning: Standard EADGBe
    
    Chords used:
    Ebm - x68876
    Bbm - x13321
    F# -  244322
    C# -  x46664
    G# -  466544
    B -   x24442
    Gm -  355533
    Eb -  x68886
    F -   133211
    
    
    Intro: Ebm-Bbm-F#-- x2
    
    Guitar…
  • Key: G#
    
    Tuning: Standard EADGBe
    
    Chords used:
    C# -  x46664
    G# -  466544
    Eb -  x68886
    Fm -  133111
    Bbm - x13321
    
    
    Intro: G#-- x8
    
    Guitar 1:
    e|----9--8----|
    B|-9----------|
    G|----------8-|
    D|------------|…
  • Key: Eb, Bb
    
    Tuning: Standard EADGBe
    
    Chords used:
    Eb - x68886
    Cm - x35543
    Fm - 133111
    G# - 466544
    F -  133111
    Bb - x13331
    
    
    Intro: Eb-Cm-Fm-Ab- x4
    
    Guitar Solo:
    e|----------------------3--6---------3-------------3--6--6-6-4-4-3-3-----|
    B|-6-6-6-6-4-3---4--4-6-------6----4---4-6--4--4-6-------------------6-6-|
    G|-------------3-----------------3---------------------------------------|
    D|-----------------------------------------------------------------------|
    A|-----------------------------------------------------------------------|
    E|-----------------------------------------------------------------------|
    
    
    Verse…
  • Intro:
    e|--------------------------------------------------------------------|
    B|--------------------------------------------------------------------|
    G|-9---7----9---------------------------------------------------------|
    D|-9-5-7----9-5-7-----------------------------------------------------|
    A|-7-5-5----7-5-7-----------------------------------------------------|
    E|---3--------3-5-----------------------------------------------------|
    
    
    Verse:
    e|--------------------------------------------------------------------|
    B|--------------------------------------------------------------------|
    G|-9---7--------------------------9---7-------------------------------|
    D|-9-5-7-7------------------7-----9-5-7-7-------------------7---------|
    A|-7-5-5-7------------------7-----7-5-5-7-------------------7---------|
    E|---3---5-do…
  • e|------------------r-------------------------------------------------|
    B|------------------e-------------------------------------------------|
    G|-4-4-X-X-X-X-X-X--p-------------------------------------------------|
    D|-4-4-X-X-X-X-X-X--e-------------------------------------------------|
    A|-2-2-X-X-X-X-X-X--a-------------------------------------------------|
    E|------------------t-------------------------------------------------|…
  • Key: G#
    
    Tuning: Standard EADGBe
    
    Chords used:
    Fm -   133111
    C# -   x46664
    Eb -   x46664
    G# -   466544
    Eb/G - 365xxx
    Bbm -  x13321
    
    
    Intro: Fm--- x4
    
    
    Verse 1:
    Fm                   C#
      i want to know the…
  • Key: C
    
    Tuning: Standard EADGBe
    
    Chords used:
    C -  x32010
    Am - x02210
    Em - 022000
    F -  133211
    G -  320003
    
    
    Intro: C--Am-G-C-F-Am-G-C-F-Am-G-
    
    
    Verse 1:
    C
    Censhorshit
    What does it
    Em
    really mean?…
  • Key: A
    
    Tuning: Standard EADGBe
    
    Chords used:
    A -    x02220
    G -    320033
    F#m -  244222
    E -    022100
    D -    xx0232
    Bm -   x24432
    C#m -  x46654
    B/Eb - x698xx
    D/F# - 2x023x
    A/C# - x476xx
    
    
    Intro: A-G-F#m-A--A-G-F#m-E---
    
    
    Verse…
  • Key: A
    
    Tuning: Standard eADGBe
    
    Chords used:
    A -   x02220
    E -   022100
    F#m - 244222
    D -   xx0232
    B -   x24442
    Bm -  x24432
    C#m - x46654
    
    
    Intro:
    
    Bass: A--B--F#m---E-
    
    Piano: A--B--F#m---E-
    
    
    Verse…
  • Key: Eb
    
    Tuning: Standard EADGBe
    
    Chords used:
    G# - 466544
    Eb - x68886
    C# - x46664
    Cm - x35543
    Fm - 133111
    
    
    Intro:
                    G#                                Eb
    e|--------------------------------|-------------------------------|
    B|--------------------------------|-------------------------------|
    G|--------------------------------|-------------------------------|
    D|-----5-------5------5-------3-5-|-----5------5------5-------3-5-|…
  • Key: B then C#
    
    Tuning: Standard EADGBe
    
    Chords used:
    B -   x24442
    F# -  244322
    G#m - 466444
    C#m - x46664
    A -   x02220
    E -   022100
    Bbm - x13321
    C# -  x46664
    G# -  466544
    F# -  244322
    
    
    Intro:
    
    Drumbeats:…
  • Key: F#
    
    Tuning: Standard EADGBe
    
    Chords used:
    Ebm -  x68876
    B -    x24442
    F# -   244322
    C# -   x46664
    G#m -  466444
    E -    022100
    Bbm -  x13321
    B/Eb - x698xx
    
    
    Verse 1:
    Ebm    B        F#
       She creeps…
  • Intro:
    e|--------------------------------------------------------------------|
    B|--------------------------------------------------------------------|
    G|--------------------------------------8-----------------------------|
    D|-5-3-5-3-5-3-5-3-5-3-5-3-5-3-5-3-5-3--8-----------------------------|
    A|-5-3-5-3-5-3-5-3-5-3-5-3-5-3-5-3-5-3--6-----------------------------|
    E|-3-1-3-1-3-1-3-1-3-1-3-1-3-1-3-1-3-1--------------------------------|
    
    
    Verse:
    e|--------------------------------------------------------------------|
    B|--------------------------------------------------------------------|
    G|-------5--------5---------------------------------------------------|
    D|-5---2-5--5---2-5---------------------------------------------------|
    A|-5-2-0-3--5-2-0-3---------------------------------------------------|
    E|-3-0------3-0-------------------------------------------------------|
    
    
    Prechorus:
    e|--------------------------------------------------------------------|
    B|--------------------------------------------------------------------|
    G|---4-----4----------------------------------------------------------|
    D|-5-4-5-5-4----------------------------------------------------------|
    A|-5-2-5-5-2----------------------------------------------------------|
    E|-3---3-3------------------------------------------------------------|
    
    
    Chorus:
    e|--------------------------------------------------------------------|
    B|--------------------------------------------------------------------|
    G|---5------5-----5---------------------------------------------------|
    D|-7-5--5-7-5-5-7-5-5-------------------------------------------------|
    A|-7-3--5-7-3-5-7-3-5-------------------------------------------------|
    E|-5----3-5---3-5---3-------------------------------------------------|
    
    
    Break:
    e|--------------------------------------------------------------------|
    B|--------------------------------------------------------------------|
    G|--------------------------------------8-----------------------------|
    D|-5-3-5-3-5-3-5-3-5-3-5-3-5-3-5-3-5-3--8-----------------------------|
    A|-5-3-5-3-5-3-5-3-5-3-5-3-5-3-5-3-5-3--6-----------------------------|
    E|-3-1-3-1-3-1-3-1-3-1-3-1-3-1-3-1-3-1--------------------------------|
    
    
    Verse…
  • Key: Eb
    
    Tuning: Standard EADGBe
    
    Chords used:
    Eb -   x68886
    Bb/D - x587xx
    Cm -   x35543
    G -    320033
    G# -   466544
    G#m -  466444
    Fm -   133111
    Bb -   x13331
    C# -   x46664
    
    
    Intro: Eb--
    
    
    Verse 1:
    Eb…
  • Key: Bb
    
    Tuning: Standard EADGBe
    
    Chords used:
    Bb - x13331
    Cm - x35543
    Gm - 355333
    Eb - x68886
    F -  133211
    F# - 244322
    G# - 466544
    
    
    Intro: Bb-- x8
    
    
    Verse:
    Bb                        F
      It seems so hard…
  • Key: E then A
    
    Tuning: Standard EADGBe
    
    Chords used:
    B -   x24442
    C#m - x46654
    F#m - 244222
    A -   x02220
    Bm -  x24432
    D -   xx0232
    F -   133211
    
    
    Intro:
    
    Part 1:
    B-C#m-B-C#m-B-C#m-F#m--A-- x3, F#m---A---
    
    Part…
  • Key: C#
    
    Tuning: Standard EADGBe
    
    Verse: x3
    e|--------------------------|
    B|--------------------------|
    G|--------------------------|
    D|------1-3-3-------1-------|
    A|-4-4---------1-4----4---4-|
    E|----------------------4---|
    
    e|--------------------------|
    B|--------------------------|
    G|--------------------------|
    D|------1-3-3----1--3-1---1-|
    A|-4-4---------1--------4---|
    E|--------------------------|
    
    e|--------------------------|
    B|--------------------------|
    G|--------------------------|
    D|------1-3-3-------1-------|
    A|-4-4---------1-4----4---4-|
    E|----------------------4---|
    
    e|-------------------------|
    B|-------------------------|
    G|-------------------------|
    D|------1-3--1-------------|
    A|-4-4----------4----1-3-4-|
    E|-----------------4-------|
    
    
    Clapping
    
    
    (Repeat…
  • Intro/Pre-Verse/Verse/Outro:
    A---------------22-2-22-2--33-3-33-3--------------
    E--00-0-00-0--------------------------33-3-33-3---
    
    
    Play this into the Pre-Verse:
    A---------
    E--3-2-3--
    
    
    Chorus: (play this 3 times)
    A------------33333333---------------------
    E--55555555------------33333333-33333333--
    
    
    Chorus…
  • Key: C
    
    Tuning: Standard EADGBe
    
    Chords used:
    C -  x32010
    Dm - xx0231
    F -  133211
    Em - 022000
    G -  320003
    Bb - x13331
    
    
    Intro: C-- x2
    
    
    Verse 1:
    C                Dm      C
      Ever since you mounted me
    Dm…
  • Key: Bb
    
    Tuning: Standard EADGBe
    
    Chords used:
    F -  133211
    Gm - 355333
    Eb - x68886
    Bb - x13331
    
    
    Intro: F-Gm-Eb-Bb-Gm-Eb- x4
    
    Guitar 2:
       F  Gm   Eb    F  Gm   Eb
    e|---|---|-----|---|---|-----|
    B|-1-|---|-1---|-3-|---|-3---|
    G|---|-3-|---3-|---|-3-|---3-|
    D|---|---|-----|---|---|-----|
    A|---|---|-----|---|---|-----|
    E|---|---|-----|---|---|-----|
    
    
    Verse:
    F…
  • Riff 1:
    E:-------------------------------------------------------
    B:-------------------------------------------------------
    G:-------------------------------------------------------
    D:-77777777----------------------------------------------
    A:-55555555-77777777-44444444-55555555-------------------
    E:----------55555555-22222222-33333333-------------------
    
    
    Riff…
Наверх