Аккорды «Godhead»

Godhead
Когда в 1991 году после развала группы "Deep" Джейсон Миллер временно оказался не у дел, ему стали поступать предложения от других команд. Однако он быстро осознал, что не хочет быть наемником, и решил сам создать новый проект. В ожидании ответов на объявление о наборе музыкантов Джейсон в компании с барабанщиком Натаном Камфиордом начал потихоньку готовить материал. Затем Миллер подключил к делу своего давнего друга Дуэйна Рейда, и парни стали прикидывать, какую музыку им лучше играть. Им хотелось… Читать полностью... Когда в 1991 году после развала группы "Deep" Джейсон Миллер временно оказался не у дел, ему стали поступать предложения от других команд. Однако он быстро осознал, что не хочет быть наемником, и решил сам создать новый проект. В ожидании ответов на объявление о наборе музыкантов Джейсон в компании с барабанщиком Натаном Камфиордом начал потихоньку готовить материал. Затем Миллер подключил к делу своего давнего друга Дуэйна Рейда, и парни стали прикидывать, какую музыку им лучше играть. Им хотелось сделать нечто среднее между "Cure", "Soundgarden" и "Fugazi", а также смешать элементы прогрессива с инди-металлом. По ходу дела они начали джемовать, но тут обнаружилось, что катастрофически не хватает басиста. Поиски проходили довольно долго, но, в конце концов, Джейсон в одном из клубов нашел подходящую кандидатуру в лице Брюса Брэндстаттера. После ряда репетиций музыканты решили, что можно начинать свою деятельность, и осталось лишь придумать название для группы. Из двух вариантов ("Blind" и "Godhead") остановились на первом. Спустя несколько месяцев, прошедших в разъездах с концертами, в команде начался разлад, что привело к замене ударника. Новым членом коллектива стал Джон Петтит из "Sins Of Soul". Выступления продолжились, и группа выпустила демку, но никакие лейблы не спешили заключать с ней контракт. Лишь в 1994 году музыкантам удалось попасть на европейский лейбл "Marlboro Music". Тогда же пришлось поменять вывеску на "Godhead", поскольку в Старом Свете уже существовали свои "Blind". Первый полнометражный альбом группа записала в 1995 году. Вслед за этим лейбл стал настаивать, чтобы в команду приняли еще одного гитариста, а Джейсон сосредоточился только на вокале, и таким образом в "Godhead" появился Майк Миллер. К 1996 году стиль группы постепенно начал меняться, поскольку Джейсона все больше привлекали готика и индастриал. Однако, смена направления устраивала не всех участников, и это привело к замене басиста, которым стал Ульрих Хепперлайн по кличке "Метод". Прошло не так уж много времени, как примеру Брюса последовал Джон Петтит, а на освободившееся место ударника уселся Джеймс О'Коннор. С ним был записан очередной альбом, "Power Tool Stigmata". Коллектив продолжил концертную деятельность, и наконец-то работа музыкантов была оценена по достоинству. Ими заинтересовался ни кто иной как сам Мэрилин Мэнсон, и в 2000 году "Godhead" стали первой командой, подписанной к его лейблу "Posthuman Records". В том же году Мэнсон взял группу в свое мировое турне "God, Guns and Government", а затем помог с продюсированием "2000 Years Of Human Error" и даже добавил свой вокал на треке "Break You Down". Еще одним именитым гостем на альбоме стал гитарист Ривз Габрельс, долгое время работавший у Дэвида Боуи. Пластинка, вышедшая в январе 2001-го, включала в себя также мрачную кавер-версию битловской "Eleanor Rigby". С этой работой "Godhead" сделали серьезный рывок, и армия их поклонников заметно подросла. Пару лет команда гастролировала, деля площадки с "Gwar", "Genitorturers" и "Christian Death", а затем отправилась в студию. Место за ударными к тому моменту занял Том Зед, но зато в сессиях вновь поучаствовал Габрельс. Альбом "Evolver" принес "Godhead" парочку хитов, "The Hate In Me" и "Far Too Long", частенько звучавших в теле- и радиоэфире. Еще одним достижением стало попадание песни "Trapped In Your Lies" (взятой со следующего диска) в американский Топ 40. Кстати, на "The Shadow Line" отбарабанил экс-участник "Static-X" Кен Джей, уступивший впоследствии установку Таю Смиту. Седьмой студийник "Godhead", сделанный в обновленной конфигурации, поступил в продажу в октябре 2008 года. Скрыть...
Популярные аккорды Godhead:
алфавиту | просмотрам | случайно
  • Intro:
    |-----------------------|-----------------------------------------|
    |-----------------------|-----------------------------------------|
    |-----------------------|-----------------------------------------|
    |--12--11--10-----2-----|---12--11--10---2-2-2-2-2-2-2-2----------|
    |--12--11--10-----2-----|---12--11--10---2-2-2-2-2-2-2-2----------|
    |-----------------------|-----------------------------------------|
    
    
    Verse:
    
    play…
  • CHORUS:
    ------------------------------------------------------------------------------|
    ------------------------------------------------------------------------------|
    ------------------------------------------------------------------------------|
    ------------------------------------------------------------------------------|
    -7-7-7--9--10-10-10--12-12-12-12--8-8-8-8-------------------------------------|
    -5-5-5--7---8-8-8-8--10-10-10-10--6-6-6-6-------------------------------------|
    
    after…
  • INTRO AND VERSE
    G----------------------------------------------------
    D----------------------------------------------------
    A----------------------------------------------------
    E-55-5-5-5-5-5H3H6-5---------------------------------…
  • Refrence:
    Gtr1 - guitar 1         / - slide up
    Gtr2 - guitar 2         \ - slide down
    Gtrs - both guitars     . - palm mute
    trem - tremolo pick  b1/2 - bend 1/2 step
    x    - staccato         ~ - vibrato
    =======================================================
    Both…
  • Intro/Verse
    E|-2-|-0-|
    B|-3-|-0-|
    G|-4-|-0-|
    D|-4-|-2-|
    A|-2-|-2-|
    E|---|-0-|
     Bmin  Em
    
    Chorus (“I’m a product of your……”)
    E|-3-|-2-|-3-|-2-|-3-|-2-|-3-|-0-|
    B|-3-|-3-|-3-|-3-|-3-|-2-|-3-|-0-|
    G|-0-|-4-|-0-|-4-|-0-|-3-|-0-|-0-|
    D|-0-|-4-|-0-|-4-|-0-|-4-|-0-|-2-|
    A|-2-|-2-|-2-|-2-|-2-|-4-|-2-|-2-|
    E|-3-|---|-3-|---|-3-|-2-|-3-|-0-|…
  • The intro play 3x's
              e
              b
              g
              d 5 7 3 3 0  0/5 
              a 5 7 3 3 0  0/5
              e 3 5 1 1 0  0/3
              
              then the chorus
              e
              b
              g…
  • E-----------|
    B-----------|
    G-----------|
    D-----------|       Repeat this four times
    A----7-6-7--|
    E--5--------|
    
    E-------------------------------------------------|
    B-------------------------------------------------|
    G-------------------------------------------------|
    D------6-------6-------6-7---6--------------------|
    A----5---5---5---5---5---------5------------------|
    E--4-------4-------4-------4-----4----------------|
    
    You…
  • Fill 1
    G|--12^----| full step
    Fade in and bend slowly down towards b string and hit b string w/ bended g string… 
    he he, bended g string
    
    Verse (clean) (Just after "So get in line..")
    G|----------------10-10-10--10-|
    D|--9--8--8--7--7-X---X--X--X--|
    A|--7--7--7--7--7-7---7--7--7--|
    
    Chorus…
  • Chorus
              ------------------------------------------------------------------------------
              ------------------------------------------------------------------------------
              ------------------------------------------------------------------------------…
  • Tuning:Drop D
    (extra spaces used to show note)
    
    ~ Let ring!!!
    
    Riff 1
    G|-------------------------------------------------------------------------|
    D|-------------------------------------------------------------------------|
    A|------------------------------------------------------------3--3-3-------|
    D|-5h7-7-7-5h7--5h7--5h7-7-5h7-7-7-5h7--5h7--5h7-7-3--3-3--0~--------5-6~--|
    
    Riff…
  • Both guitars are tuned standard(EADGBe) 
    
    Intro (0sec - 22sec)
    
    Part I X4 (22sec - 30sec)
    ||------------------------||
    ||------------------------||
    ||-5--5--55--5--5--5--5-5-||PART I
    ||-5--5--55--5--5--5--5-5-||
    ||-3--3--33--3--3--3--3-3-||
    ||-x--x--xx--x--x--x--x-x-||
    pm.…
  • Tuning: DADG
    
      Intro (4x)/ Verse (4x)
    G|---------------------------------------------------------|
    D|---------------------------------------------------------|
    A|---------------------------------------------------------|
    D|--2p1h2p1h2-2-5---2-2-1h2-------2p1h2p1h2-2-5---2-2-1h2--|…
  • Tuning: ((CGCFAd))
    
    Intro::                       (Play these multiple times)
    |-----------------------------|--------------------15---|
    |-----------------------------|----------13---12----x---|
    |-----------------------------|-14--11----x----x---12---|
    |-----------------------------|--x---x---11---10--------|
    |-(8)-(8)-(8)-(8)-(8)-8-8-8-8-|-12---9------------------|
    |-----------------------------|-------------------------|
    
    Verse::
    |-----------------------|
    |-----------------------|
    |-----------------------|
    |-4-4---4-4---4-4---4-4-|
    |-4-4---4-4---4-4---4-4-|
    |-4-4---4-4---4-4---4-4-|
    
    Chorus::
    |---------------------------------|-------------------------|-----------------------
    |-7-7-7-7-7-7-7-7-5-5-5-5-5-5-5-5-|-------------------------|-----------------7-7-7-
    |-6-6-6-6-6-6-6-6-4-4-4-4-4-4-4-4-|-7-7-7-7-7-7-7-7-7-7-7-7-|-6-6-6-6-6-6-6-6-6-6-6-
    |-4-4-4-4-4-4-4-4-2-2-2-2-2-2-2-2-|-7-7-7-7-7-7-7-7-7-7-7-7-|-6-6-6-6-6-6-6-6-4-4-4-
    |-4-4-4-4-4-4-4-4-2-2-2-2-2-2-2-2-|-5-5-5-5-5-5-5-5-5-5-5-5-|-4-4-4-4-4-4-4-4-4-4-4-
    |-4-4-4-4-4-4-4-4-2-2-2-2-2-2-2-2-|-0-0-0-0-0-0-0-0-0-0-0-0-|-----------------4-4-4-…
  • Tuning-Standard
    Key
    s-slide
    N.H.-natural harmonics
    ~~~-vibrate
    Godhead is one the coolest bands out there.
    I lay out the timing, but it’s easy to figure out.
    Intro
    |--------------------------------------------------------------------|
    |--------------------------------------------------------------------|
    |--------------------------------------------------------------------|
    |--------------------------------------------------------------------|…
  • (intro/verse)
    G-----------------------|
    D-----------------------|
    A-----------------------|
    D-1-----1------1------1-|
    
    (chrorus)
    G------------------|
    D------------------|
    A------------------|
    D-1------4------6--|
    
    (outro)…
  • PM=Palm Mute
    
    
    
       PM----|    PM----|    PM----|
    E----------------------------------------------------|
    B----------------------------------------------------|
    G----------------------------------------------------|
    D--22--22-----22--22-----22--22------/10---10---10---|…
Наверх