Аккорды «Good Charlotte»

Good Charlotte
После посещения концерта группы Beastie Boys, гитарист Бенджи и вокалист Джоэл решили организовать собственную группу. Тогда им было по 16 лет. К тому же, Бенджи никогда раньше не играл на гитаре, а Джоэл — не пел. Так появилась "Good Charlotte" в 1996 году, когда к группе присоединились Пол Томас (бас-гитара) и Эрон Эсколопио (ударные). Через некоторое время группа переехала в Анаполис, штат Мэриленд, где музыканты познакомились с Билли Мартином. После выпуска EP, названого "Another… Читать полностью... После посещения концерта группы Beastie Boys, гитарист Бенджи и вокалист Джоэл решили организовать собственную группу. Тогда им было по 16 лет. К тому же, Бенджи никогда раньше не играл на гитаре, а Джоэл — не пел. Так появилась "Good Charlotte" в 1996 году, когда к группе присоединились Пол Томас (бас-гитара) и Эрон Эсколопио (ударные). Через некоторое время группа переехала в Анаполис, штат Мэриленд, где музыканты познакомились с Билли Мартином. После выпуска EP, названого "Another EP", в 1999 году, группа выпустила свой первый одноимённый альбом в 2000 году. Но, к сожалению, этот альбом не имел большого коммерческого успеха. Наиболее популярные синглы из этого альбома — "Little Things", "Motivation Proclamation" и "Festival Song". По предложению канала MTV группа записывает композицию "The Click", которая стала музыкальной темой для нового проекта канала — мультфильма "Undergrads". Позднее к этой песне, вошедшей во второй релиз альбома, был снят клип, в которм кадры из мультфильма чередовались с кадрами выступления группы. Эрон принимал участие в записи дебютного альбома, как барабанщик. Он покинул группу в начале 2001 года, чтобы присоединиться к "Wakefield" вместе со своим братом. Его заменил Дасти, который был лишь временным ударником группы. Дасти покинул группу перед записью второго альбома "The Young and the Hopeless". В итоге, профессиональный ударник Джош Фризел стал барабанщиком для этого альбома. Альбом 2002 года "The Young and the Hopeless" был гораздо более популярным и дал группе возможность попасть в мейнстрим. Сингл, сделавиший их известными, называется "Lifestyles of the Rich and the Famous". Эта песня занимала вершины хит-парадов по всему миру. Также были популярны синглы "The Anthem", "Girls and Boys", "Hold On" и "The Young and the Hopeless". Альбом получил сертификат трижды-платинового от RIAA. Группа появлялась в шоу Saturday Night Live, на обложках Rolling Stone и Alternative Press, а также на двух страницах New York Times и в репортажах CNN и The Today Show. Клипы Good Charlotte также были очень популярны на MTV и MTV2, а клип на песню "The Anthem" получил награду "Viewers Choice Award" на церемонии MTV 2003 Video Music Awards. Крис Уилсон был барабанщиком группы на записи третьего альбома "The Chronicles of Life and Death", выпущеного в 2004 году. Популярные синглы — "Predictable", "I Just Wanna Live", "We Believe" и "The Chronicles of Life and Death". Музыкальный стиль этого альбома несколько отличается от двух предыдущих. В мае 2005 года Крис покинул группу из-за проблем со здоровьем. Также Бенджи рассказал журналу Kerrang!, что худшей частью 2005 года стал уход Криса. NME сообщил 14 июля 2006 года, что четвёртый альбом Good Charlotte ожидается в октябре 2006 года. Продюссером диска будет Дон Гилмор, который работал над первым альбомом. Причиной этого стало желание группы вернуться к олд-скул стилю. Популярность команды росла медленно, но необратимо. Изданный в сентябре, до конца 2002 года "The Young and the Hopeless" попал в Тор 10 интернет-рейтинга альбомов, а в начале 2003-го финишировал на 7 строке американского поп-чарта. Целый год альбом не покидал хит-парада и в начале 2004 года опять вернулся в первую десятку. В августе 2003 года Good Charlotte поднялись на фестивальную сцену в Рединге и Лидсе. Своя публика в Великобритании у них есть уже давно, но нельзя сказать, чтобы музыкантов приветствовали как триумфаторов. Несколько запущенных на сцену из толпы бутылок почти достигли цели, а среди зрителей появился плакат, извещавший о том, что даже Аврил Лавин играет круче. Вроде ничего особенного, если не учитывать, что в списке "что я ненавижу" Бенджи Мэдден одной из первых называет как раз Аврил Лавин. Но разве настоящие панк-рокеры расстраиваются, когда им показывают факи? Не расстроились и Good Charlotte (потому что, хоть и с некоторыми оговорками, но считают себя панк-рокерами). У музыкантов Good Charlotte, по крайней мере у идейного ядра в лице Джоэла и Бенджи Мэдденов, не по-панковски позитивная жизненная программа: "По-доброму относиться к миру и к детям, быть честным перед Богом и своей семьей и сделать мир хотя бы чуть-чуть лучше". Интересно - кому и когда пришло в голову назвать Good Charlotte панками?.. Скрыть...
Популярные аккорды Good Charlotte:
алфавиту | просмотрам | случайно
  • INTRO
    
    E|-----------------------------|
    B|-----------------------------|
    G|-----------------------------|
    D|-77------------77------------|
    A|-55-777-55-777-55-777-555555-|
    E|----555-33-555----555-333333-|
    
    E|-----------------------------------------------------------------------|
    B|-----------------------------------------------------------------------|
    G|---4-44-4-66-8-10----------1010-8-6----------4-44-6-8----------88-6-4--|
    D|-4-4-44-4-66-8--8-8-6-66-6--8-8-8-6-6-4-44-4-4-44-6-8-8-6-66-6-88-6-4--|
    A|-4-2-22-2-44-6--8-8-6-66-6--8-8-6-4-6-4-44-4-2-22-4-6-8-6-66-6-66-4-2--|
    E|-2----------------6-4-44-4----------4-2-22-2----------6-4-44-4---------|
    
    VERSE
    (Palm-muted)
    E|------------------------------------|
    B|------------------------------------|
    G|------------------------------------|
    D|-777-55-333-55-777-55-333-55-777-55-|
    A|-777-55-333-55-777-55-333-55-777-55-|
    E|-555-33-111-33-555-33-111-33-555-33-|
    
    (Not…
  • You have to tune down a half step (Gb, Db, Ab, Eb) (GC is a band that tends to
    tune down a half step most of the time)
    
    Intro (Drums)
    
    Verse 1 (0:09)
    Gb----------------------------------------------------------------------
    Db-----------------55------------------------------55555555-------------
    Ab-55------77--------------55----55555555-77777777----------55555555----
    Eb----------------------------------------------------------------------
    
    Pre-Chorus
    Gb-------------------------------------------------------------------------
    Db-------------------------------------------------------------------------
    Ab-22222222----------55555555----------22222222----------55555555----------
    Eb----------33333333----------55555555----------33333333----------55555555-
    
    Gb-------------
    Db-------------
    Ab-------------
    Eb-33333333----
    
    Chorus-Play…
  • Tuning:  Ѕ Step down ( Eb, Ab, Db, Gb, Bb, Eb )
    
    Em7add9- xx2032
    D- xx0232
    Dsus2- xx0230
    C2- x32033
    G- 320033
    Am7- x02013
    Cm- x35543
    Gmaj7- 3x0032 
    G7/F- 1x0001
    Bm7-x24232
    * Indicates pull off from D to Dsus
    
    Verse…
  • Am      F        C
    Is anybody listening?
             G              Am
    Can they hear me when I call?
    Am           F              C
    I'm shooting signals in the air,
             G               Am
    'Cause I need somebody's help…
  • Tuning: Half Step Down (Eb Ab Db Gb Bb Eb)
    
    x =dead string, don't play
    
    
    Intro
    Eb|-------||
    Bb|-------||
    Gb|---4---||
    Db|---x---||26x
    Ab|---2---||
    Eb|-------||
    
    Verse
    Eb|-------------------------||---------------------------||
    Bb|-------------------------||---------------------------||
    Gb|--44444444---------------||-44444444------------------||
    Db|--44444444-2222-4444-----||-44444444-4444-6666--------||
    Ab|--22222222-2222-4444-----||-22222222-4444-6666--------||
    Eb|-----------0000-2222-----||----------2222-4444--------||…
  • body=Into/Verse/Pre chorus
    G|-----------------------------------------------------------------|
    D|-----------------------------------------------------------------|
    A|--4-4-4-4-4----------------------------0-----------------------|
    E|--------------4-4-4-3-2-2-2-2-2--2-2---0---------------------|
    
    Chorus…
  • Drop C
    d                        Pedal options: Classic reverb (amp reverb good)
    a                                       Phaser pedal(set to low frequency)
    f     
    C
    G
    C
    
    INTRO
    ---------------------8-----|---------------------8----------------------------
    ---------------------8-----|---------8-----10----9----------------------------
    ---5-----------------10----|---5-----7-----9-----10---------------------------
    ---5-----5-----7-----10----|---5-----5-----7-----10---------------------------
    ---3-----5-----7-----8-----|---3-----5-----7-----8----------------------------
    ---------5-----7-----------|---------5-----7----------------------------------…
  • ------------------------------------------------------------------------------|
    ------------------------------------------------------------------------------|
    ------------------------------------------------------------------------------|
    -0-2/42-0-2/42-0-2/42/4/542--0-2/42-0-2/42-0----0-2/42-0-2/4^2-------|
    ------------------------------------------------------------------------------|
    ------------------------------------------------------------------------------|
    
    
    ------------------------------------------------------------------------------|
    ------------------------------------------------------------------------------|
    ------------------------------------------------------------------------------|
    -0-2/42/4/542-0-2/42-0-2/42-0--------------------------------------------|
    ------------------------------------------------------------------------------|
    ------------------------------------------------------------------------------|…
  • INTRO
    
    E__________________________
    A__3_______________________
    D__2_______________________
    G__________________________
    B___1______________________
    E__________________________
    
    
    E__________________________
    A___2______________________
    D__________________________
    G__________________________
    B____3_____________________
    E__________________________
    
    
    E__________________________
    A_________3________________
    D_________3________________
    G_________2________________
    B_________1________________
    E_________1________________…
  • INTRO:
    
    A# - G# - F# - G# (2x)
    
    VERSE 1:
              A#    G#           F#
    I need an alarm system in my house
         G#                   A#       G#
    So I know when people are creeping about
                    F#           G#
    These…
  • Verse 3x
    E-----------------------------------------------------------
    B-----------------------------------------------------------
    G---7-------------------------------7-----------------------
    D---7-------7-------9-------5-------7-------7-------5-------
    A---5-------7-------9-------5-------5-------7-------5-------
    E-----------5-------7-------3---------------5-------3-------
    
    Chours
    E-----------------------------------------------------------
    B-----------------------------------------------------------
    G---7-------------------------------------------------------
    D---7-------7-------9-------4-------5-------7-------9-------
    A---5-------7-------9-------4-------5-------7-------9-------
    E-----------5-------7-------2-------3-------5-------7-------
    
    E-----------------------------------------------------------
    B-----------------------------------------------------------
    G---7-------------------------------------------------------
    D---7-------7-------9-------4-------5-------7-------9-------
    A---5-------7-------9-------4-------5-------7-------9-------
    E-----------5-------7-------2-------3-------5-------7-------
    
    E-----------------------------------------------------------
    B-----------------------------------------------------------
    G-------------------7---------------------------------------
    D---5-------7-------7---------------------------------------
    A---5-------7-------5---------------------------------------
    E---3-------5-----------------------------------------------
    
    Verse
    
    Chours
    
    Solo
    E-----------------------------------------------------------
    B-----------------------------------------------------------
    G-------------------------------------------------4-6-7-9---
    D-------------------------------------------------4-6-7-9---
    A---5-5-5-7-5-4-4-0-2-2-2-0-2---4-5-5-5-0-4-4-4-0-2-4-5-7---
    E-----------------------------------------------------------
    
    E-----------------------------------------------------------
    B-----------------------------------------------------------
    G-----------------------------------------------------------
    D---0-0-4-0-5-0-4-0---7-7-4-0-5-0-4-0-----------------------
    A-----------------------------------------------------------
    E-----------------------------------------------------------
    
    E-----------------------------------------------------------
    B-----------------------------------------------------------
    G-----------------------------------------------------------
    D---0-0-4-0-5-0-7-0-9-0-7-0-5-0-4-0---0-0-4-0-5-0-4-0-------
    A-----------------------------------------------------------
    E-----------------------------------------------------------
    
    E-----------------------------------------------------------
    B---------------------7-7-----------------------------------
    G---------------------7-7-----------------------------------
    D---7-7-4-0-5-0-4-0---7-------------------------------------
    A-----------------------------------------------------------
    E-----------------------------------------------------------…
  • Intro:
    Guitar 1:
    E|------------------------------------------------------------------|
    B|------------------------------------------------------------------|
    G|---77-8-1010------------------------------------------------------|
    D|---77-8-1010------------------------------------------------------|
    A|---55-6-8-8-------------------------------------------------------|
    E|------------------------------------------------------------------|
    
    (while…
  • Chords:
    E-022100       A-x02220
    B-x24422       F#m-244222
    
    
    Intro:-
    e--0--------0--------0--------0--------0--------0--------0--------0--------
    B----0-10-9---0-10-9---0-10-9---0-10-9---0-10-9---0-10-9---0-10-9---0-10-9-
    G--------------------------------------------------------------------------
    D--------------------------------------------------------------------------
    A--------------------------------------------------------------------------
    E--------------------------------------------------------------------------…
  • intro:
    
    E|---------------------------------------------------------------
    B|---------------------------------------------------------------
    G|---------------------------------------------------------------
    D|---6-6-6-6-6-6-----8-8-8-8-8-8----6-6-6-6-6-6---6-6-6-6-6-6----
    A|---6-6-6-6-6-6-----8-8-8-8-8-8----6-6-6-6-6-6---6-6-6-6-6-6----
    E|---4-4-4-4-4-4-----6-6-6-6-6-6----4-4-4-4-4-4---4-4-4-4-4-4----
    
    
    verse:…
  • solo
    E--------------------------------|---------------------------------|
    B----15----12----15----------12b~|---------------------------------|
    G-------------------------12-----|-14h12----------14b-14-14-12-14b-|
    D-12----12----12----12-12--------|-------14-12-14------------------|
    A--------------------------------|---------------------------------|
    E--------------------------------|---------------------------------|
    
    E----------------------------------|----------------------------------------|
    B----------------------------------|----------------------------------------|
    G----------------------------------|----------12-12-------12-12-------12-12-|
    D-14h12----------12-14-12-14/1614-|-12-12h14-------12h14-------12h14-------|
    A-------14-12-14-------------------|----------------------------------------|
    E----------------------------------|----------------------------------------|
    
    E--------------------------------|----10-12b--------|
    B--------------------------------|-12--------10-----|
    G-------12-------12-14------12-12|--------------12--|
    D-12h14----12h14------12h14------|------------------|
    A--------------------------------|------------------|
    E--------------------------------|------------------|…
  • Dm- 000231
    F- 003213
    C- 032010
    G- 320003
    Bb- 003331
    Fadd9- 003213
    
    
    Dm   F	     C	         G
       Always, always and forever
    Dm   F	     C	         G
       Always, always and forever
    
        Dm
    I'm sitting here, I'm thinking back
    F…
  • C#                       D#
    Turn on channel 7 at a quarter to eight 
                Fm                           D#
    you see the same damn thing its just a different day and
    C#                D#                 Fm          
    no…
  • They play the song in Eb tuning,
    so if you want to be able to play along with the song, tune to Eb. (I think)
    
    Verse (play each note multiple times)
    G--------------------------------------------
    D--------------------------------------------
    A----4-0-----4-0-----------------------------
    E--0-------0---------------------------------
    
    Pre-Chorus
    G--------------------------------------------
    D--------------------------------------------
    A--4---7----4---7----------------------------
    E----5---7----5---7--------------------------
    
    Chorus
    G--------------------------------------------
    D--------------------------------------------
    A-----4--0--2---------4--0--2----------------
    E--0---------------0-------------------------
    
    (there…
  • C-0-1-0-2-3-0
    B-1-1-2-3-3-0
    
    You just play those two chords alternating through the verses. Then…….
    
    “With the things she says I…”  then you go to….
    
    E|---------------------------------------|
    A|---------------------------------------|
    D|---------------------------------------|…
  • B                 Esus2/B                F#                    E
          x 2 4 4 4 2          x 2 4 4 5 2          2 4 4 3 2 2          0 2 2 1 0 0
    
    Gtr I (E A D G) - Bass
    Gtr II (E A D G B E) - Clean Electric
    Gtr III (E A…
  • Вступление:C G Am G F  G C --> 2р
         F
    In the dark
                             Am
    In the darkness you will find
         F                      C
    Dirty little secrets we all hide
          F                    Am
    Cause we…
  • Into:
    G:--------------------
    D:--------------------
    A:---------------6-5--
    E:--4-0-4-6----4-----6
    
    Riff 1:
    G:----------------------------
    D:----------------------------
    A:----------------------------
    E:---4444---66666------4444444
    
    Chorus:
    G:------------------------------------
    D:------------------------------------
    A:-6666666-5555555--------------------
    E:------------------------4444444444--
    
    Bridge:
    G:-----------------
    D:-----------------
    A:----3-------6-5--
    E:--6---4---------4
    
    End:…
  • INTRO:
    e|---------------------------------------------------------------------|
    B|---------------------------------------------------------------------|
    G|-------5-------------------------------------------------------------|
    D|-----------5--3-3-3h5p0----------------------------------------------|
    A|---3-----------------------------------------------------------------|
    E|---------------------------------------------------------------------|
    VERSE:…
  • Tuning: Standard 
    
    Intro (Distorted) Part 1
    e|------16-16--18-18--16-16--15-15-------------------------------------------|
    B|------15-15--15-15--15-15--15-15-------------------------------------------|
    G|---------------------------------------------------------------------------|
    D|---------------------------------------------------------------------------|
    A|---------------------------------------------------------------------------|
    E|---------------------------------------------------------------------------|
    
    Part…
  • Intro/Verse
    e|--------------------------------7b-----------------------------------------|
    B|---------------------------------------------------------------------------|
    G|-------5b-----5b--------5b-------------------------------------------------|
    D|---------------------------------------------------------------------------|
    A|--0--0-----0------0--0------0----------------------------------------------|
    E|---------------------------------------------------------------------------|
    
    Chorus
    e|---------------------------------------------------------------------------|
    B|---------------------------------------------------------------------------|
    G|-7-7--9--9-----------------------------------------------------------------|
    D|-7-7--9--9---7-7--7-7------------------------------------------------------|
    A|-5-5--7--7---7-7--7-7------------------------------------------------------|
    E|-------------5-5--5-5------------------------------------------------------|
    
    Bridge
    e|---------------------------------------------------------------------------|
    B|---------------------------------------------------------------------------|
    G|--------7-7----------------------------------------------------------------|
    D|--4-4---7-7--7-7-7-7-------------------------------------------------------|
    A|--4-4---5-5--7-7-7-7-------------------------------------------------------|
    E|--2-2--------5-5-5-5-------------------------------------------------------|
    You…
  • Intro
    ----------------------------------------------------------------------------
    ----------------------------------------------------------------------------
    -1111--3333--4444--3333-----------------------------------------------------
    ----------------------------------------------------------------------------
    *Repeat…
  • Chords
    |------------------------------------------------------------|
    |------------------------------------------------------------|
    |---------------10-10-10-10-10---8-8-8-8-8---10-10-10-10-10--|
    |---8-8-8-8-8---10-10-10-10-10---8-8-8-8-8---10-10-10-10-10--|…
  • Chorus x 4
    e|--------------------------------------------------------|
    B|--------------------------------------------------------|
    G|--5-5---------2-2---------------------------------------|
    D|--5-5--3-3-3--2-2--5-5-5-5------------------------------|
    A|--3-3--3-3-3--0-0--5-5-5-5------------------------------|
    E|-------1-1-1-------3-3-3-3------------------------------|
    Pre…
  • Tuning:standard
    
    INTRO: x whatever floats your boat
    Guitar one:
    e|--------------------------------------------------------------------------|
    B|--------------------------------------------------------------------------|
    G|--------------------------------------------------------------------------|
    D|-------44-----------------------------------------------------------------|
    A|-222222-------------------------------------------------------------------|
    E|--------------------------------------------------------------------------|
    
    Guitar…
  • Gtr 1: Tune Down 1/2 step:
    (low to high) Eb-Ab-Db-Gb-Bb-Eb
    
    Gtr 2: Tune Down Drop D 1/2 step:
    (low to high) Db-Ab-Db-Gb-Bb-Eb
    
    
    
    Gtr 1.
     Pick With Fingers
    
    Section A
                  Dm                              F
    
    |------17-------------13---------|----------17-19--20-19-17----|
    |--18------18-----15------15-----|-----18-------------------18-|
    |--19-------------------------14-|--17-------------------------|
    |-------------19--15-------------|-----------------15----------|
    |--------------------------------|--15-------------------------|
    |--------------------------------|-----------------------------|…
  • Tuning is regular
    Figure out the strumming patterns. They change throughout the song.
    
    Chords used:
    B=0     F#= 2       E=0  
      2         4	      2
      4         4         2
      4         3         1
      4         2         0…
  • C
    This world
          G        Am   F
    This world is cold         
    But you don't   
    You don't have to go       
    You're feeling sad, you're feeling lonely,      
    and no one seems to care        
    You're mother's gone and your…
  • tuning: (E,A,D,G,B,E) low to high
    
    
    intro:
    
    1|-----------------------------------
    2|-----------------------------------
    3|-----------------------------------
    4|--2-2-2----------------------------
    5|--0-0-0--2-2-2--7-7-7-7--5-5-5-5---
    6|---------0-0-0--5-5-5-5--3-3-3-3---
    
    
    main…
  • Intro:
    E----------0-------------|
    B--------------1---------|
    G-----3----------3-------|
    D-------2----------2-----|
    A---3----------------3---|
    E------------------------|
    
    Verses:
    
         (C7)              (F)
    
    E---0---0---x-x-x-x---1---1---x-x-x-x----|
    B---1---1---x-x-x-x---1---1---x-x-x-x----|
    G---3---3---x-x-x-x---2---2---x-x-x-x----|…
  • standard tuning EADGBe
    
    e----------       
    b----------      
    g--5--4----  mess around w/
    d----------  those 2 notes
    a----------
    e----------
    
    and then do this:
    
    e-----------
    b-----------
    g--5--7--5--
    d-----------
    a-----------
    e-----------
    
    verse:
    bass…
  • play this for the verse
    e|3-------3-------------------------------------------------------------------|
    B|3-------3-------------------------------------------------------------------|
    G|0-------0-------------------------------------------------------------------|
    D|2-------0-------------------------------------------------------------------|
    A|2-------2-------------------------------------------------------------------|
    E|--------3-------------------------------------------------------------------|
    
    chorus
    e|3-----3--------3------------------------------------------------------------|
    B|3-----3--------3------------------------------------------------------------|
    G|0-----0--------2------------------------------------------------------------|
    D|2-----0--------0------------------------------------------------------------|
    A|2-----2--------0------------------------------------------------------------|
    E|------3---------------------------------------------------------------------|…
  • Intro:
    Guitar 1
    e|--------------------------------------------------------------------------|
    B|--------------------------------------------------------------------------|
    G|--6-6--4--6---------------------------------------------------------------|
    D|--6-6--4--6---------------------------------------------------------------|
    A|--4-4--2--4---------------------------------------------------------------|
    E|--------------------------------------------------------------------------|
    Guitar…
  • intro/verse
       Am C
    e--0--0--
    b--1--1--
    g--2--0--
    d--2--2--
    a--0--3--
    e--------
    
    chorus
       F  C  G
    e--1--0--3--
    b--1--1--0--
    g--2--0--0--
    d--3--2--0--
    a--0--3--2--
    e--------3--
    
    solo
    e---------------------------------------------------------------------
    b---------------------------------------------------------------------
    g-----------5-7b-5-7b-5-----5-----5-----5-7b-5------------------------
    d-----5-5h7-------------5h7---5h7---5h7------------5-----5-----5-7b-5-
    a-5h7------------------------------------------5h7---5h7---5h7--------
    e---------------------------------------------------------------------
    
    e----------------------
    b----------------------
    g-----------5-7b--7b-5-
    d-----5-5h7------------
    a-5h7------------------
    e----------------------…
  • Chords
    |------------------------------------------------------------|
    |------------------------------------------------------------|
    |---------------10-10-10-10-10---8-8-8-8-8---10-10-10-10-10--|
    |---8-8-8-8-8---10-10-10-10-10---8-8-8-8-8---10-10-10-10-10--|…
Наверх