Аккорды «Good Riddance»

Good Riddance
Good Riddance (или GR) это мелодик хардкор группа из Санта Круз, Калифорния. Возглавляемый вокалистом Рассом Ранкином, долговременный состав группы включал гитариста Люка Пабича, басиста Чака Плэтта, и барабанщика Сина «ЭсСи» Селлерса. На их звук повлияла панк хардкор сцена и группа была известна за их комбинирование быстрого панка и заразительных мелодий. Темы песен варьировались от политических протестов и критических анализов американского общества до персональной борьбы и отчужденности. Пабич… Читать полностью... Good Riddance (или GR) это мелодик хардкор группа из Санта Круз, Калифорния. Возглавляемый вокалистом Рассом Ранкином, долговременный состав группы включал гитариста Люка Пабича, басиста Чака Плэтта, и барабанщика Сина «ЭсСи» Селлерса. На их звук повлияла панк хардкор сцена и группа была известна за их комбинирование быстрого панка и заразительных мелодий. Темы песен варьировались от политических протестов и критических анализов американского общества до персональной борьбы и отчужденности. Пабич и Ранкин раньше были так же участниками State Of Grace, до выпуска альбома Decoy в 1994 г. Все участники играют в сторонних проектах: Пабич и Селлерс в Outlie, Плэтт в I Want Out, и Ранкин в Only Crime. Каждый участник группы или веган, или вегетарианец. Группа также является сторонницей Людей за Этическое Обращение с Животными и Зеленой Партии Соединенных Штатов. 3-го апреля 2007 г., они объявили о своем распаде, и сыграли свое последнее шоу 27-го мая в своем родном городе Санта Круз, Калифорния в The Catalyst. В феврале 2012 года на официальном сайте группы, а также на сайте лейбла Fat Wreck Chords появилась информация о воссоединении группы. В 2015 году анонсировали выход нового альбома Peace In Our Time. Скрыть...
Популярные аккорды Good Riddance:
алфавиту | просмотрам | случайно
  • verse  
    G:----------------------
    D:----------------------
    A:--7>-5-4-5--7>-4-5-4-- X 4
    E:----------------------
    
    chorus
    G:-------------------------------------------
    D:-----5>-7>----5-7-5------5>-7>----5-7-5----
    A:--7>-------7>-------7-7>-------7>-------7--
    E:-------------------------------------------
    
    verse
    chorus
    
    bridge
    G:---------------------------------------
    D:-----5>-7>-------------5>-7>----5>-7>--
    A:--7>-------7>-------7>-----------------
    E:--------------3>-5>----------0>--------
    
    verse…
  • INTRO
    g]------------------------]
    d]------------------------]
    a]-----5-5-5-----8-8-8-6>-]
    e]-6-6-------3-3----------]
    
    VERSE
    g]---------------]
    d]---------------]
    a]----5-------6>-]
    e]-6>---3-3-3----]
    
    CHORUS
    g]-----------------------------]
    d]-----------------------------]
    a]----8>-10>-6>----8>-10>-10-8-]
    e]-6>-----------6>-------------]
    
    VERSE
    CHORUS
    
    JUST…
  • Intro: 
    Guitar1
    e|---------------------------------------------------------------------------|
    B|---------------------------------------------------------------------------|
    G|------------32/3-32/3-32/3-6-5-3-5--------------------------------------|
    D|---------------------------------------------------------------------------|
    A|---------------------------------------------------------------------------|
    E|---------------------------------------------------------------------------|
    
    Guitar2
    e|---------------------------------------------------------------------------|
    B|---------------------------------------------------------------------------|
    G|--xxx-xxx-xxx--------------------------------------------------------------|
    D|--xxx-xxx-xxx--------------------------------------------------------------|
    A|--xxx-xxx-xxx--------------------------------------------------------------|
    E|---------------------------------------------------------------------------|
    
    Guitar1,2
    e|---------------------------------------------------------------------------|
    B|---------------------------------------------------------------------------|
    G|---------------------------------------------------------------------------|
    D|--8888888-66-8888888-66-8888888-66-8888888888------------------------------|
    A|--8888888-66-8888888-66-8888888-66-8888888888------------------------------|
    E|--6666666-44-6666666-44-6666666-44-6666666666------------------------------|
    
    Verse1:
    Guitar1,2
    e|---------------------------------------------------------------------------|
    B|---------------------------------------------------------------------------|
    G|---------------------------------------------------------------------------|
    D|--8888-66-33--8888-66-33--8888-66-33-8888----------------------------------|
    A|--8888-66-33--8888-66-33--8888-66-33-8888-8---------xxx--------------------|
    E|--6666-44-11--6666-44-11--6666-44-11-6666-64/64/6-xxx--------------------|…
  • Intro (this is pretty much the same all the way throught the song, u just need to
    listen to it to get the strumming pattern)
    
    e---------------------------------------
    b---------------------------------------
    g-------------------777--999------------…
  • Intro
    e|----------------------------------------------------------------------|
    B|----------------------------------------------------------------------|
    G|11-9-6~-11-9-6~-11-9-6-4-6-4-12-12-12--11-9-6-9-11--9-6-9-11-9-6-9--4-|
    D|----------------------------------------------------------------------|
    A|-9-7-4~--9-7-4~--9-7-4-2-4-2-10-10-10---9-7-4-7--9--7-4-7--9-7-4-7--2-|
    E|----------------------------------------------------------------------|
    
    e|----------------------|
    B|----------------------|
    G|6-4-121212-11~~~~-11--|
    D|----------------------|
    A|4-2-101010--9~~~~--9--|
    E|----------------------|
    
    Verse…
  • > MEANS STRUM
    
    INTRO & CHORUS
    G]-------------------------------]
    D]-------------------------------]
    A]-7>-----7>-----7>--------------]
    E]----5-5----5-5----5-5-7>-3-3-3-]
    
    
    G]------------]
    D]------------]
    A]-7>---------]
    E]----5>-7>-3-]
    
    CHORUS
    VERSE
    CHORUS
    
    BRIDGEx2
    G]-------------]
    D]-------------]
    A]----------7>-]
    E]-4>-5>-7>----]
    
    CHORUS…
  • Tuning: standard 
    
    Quick palm muted power chords through verse - listen to the song for the rhythm
    
    Verse chords:
    
        A#   D#  G#  D#  A#
    E|---------------------------------------------------------------------------|
    B|---------------------------------------------------------------------------|
    G|--------8----------8-------------------------------------------------------|
    D|--8-----8-----6----8----8--------------------------------------------------|
    A|--8-----6-----6----6----8--------------------------------------------------|
    E|--6-----------4---------6--------------------------------------------------|…
  • intro  
    G:------------------------
    D:-----2>----------2>-----
    A:-----------5>-----------
    E:--5>----2>----5>----2>--
    
    verse
    G:---------------
    D:---------------
    A:-----------5>-- X 4
    E:--5>-4>-2>-----
    
    chorus same as intro…
  • > MEANS STRUM
    
    INTRO
    G]-------------]
    D]-------------]
    A]-----------4-]
    E]-4-4-4-4-1---]
    
    REST OF SONG
    G]-------------]
    D]-------------]
    A]-------4>-6>-]
    E]-4>-1>-------]
    
    
    
    
    
  • intro & verse  
    G:-------------
    D:-------------
    A:--5>--------- X 8
    E:------6>-5>--
    
    chorus
    G:---------------
    D:---------------
    A:-----4>-6>----- X 2
    E:--2>-------7>--
    
    verse
    chorus 'til the end
    
    outro
    G:----------
    D:----------
    A:--6>------
    E:------7>--…
  • THIS IS THE WHOLE SONG. SOMETIMES CHUCK WILL PLAY AN OCTAVE HIGHER
    WHICH IS THE SECOND PART HERE
    
    G]----------------]  
    D]----------------]  
    A]-3>-------------]  
    E]----3>-5>-1>----]  
    
    G]----------------]
    D]-10>------------]
    A]-----10>-12>-8>-]
    E]----------------]…
  • G-|-----------------------------------------------|
    D-|-7-7-7-7-7-7-7-7-9-9-9-9-9-9-9-9---|
    A-|-5-5-5-5-5-5-5-5-7-7-7-7-7-7-7-7---|
    E-|-----------------------------------------------|
    
    G-|----------------------------------------------------------------------------------|
    D-|--------------------------------------------------------------------------------|
    A-|-------------------------------------------12-12-12-12-12-12-12-12-|
    E-|-5-5-5-5-5-5-5-5-5-5-5-5-5-5-5-5-------------------------|
    
    G-|-----------------------------------------------------------------------
    D-|-----------------------------------------------------------------------------
    A-|------------------------7-7-7-7-7-7-7-5-x-5-x-10-10--9--9-7-7-5-
    E-|-5-5-5-5-5-5-5-5------------------------------------------------------
    
    G---------------------------------------------------------------
    D-|--------------------------------------------------------------------
    A-|-----------------------4-4-4-4-4-4-4-4-5-x-5-x-10-10--9--9-7-7-5-
    E-|-5-5-5-5-5-5-5-5-2-2-2-2-2-2-2-2---------------------------
    
    G-|--------------------------------------------------------------------------
    D-|-------------------------------------------------------------------------------------
    A-|----------------------7-7-7-7-7-7-7-7-5-x-5-x-10-10--9--9-7-7-5-
    E-|-5-5-5-5-5-5-5-5-------------------------------------------------------
    
    G-|-----------------------------------------------------------------|
    D-|---------------------------------------------------------------------------------|
    A-|--------------------------------------------4-4-4-4-4-4-4-4-5-5-5-5-5-5-5-5-5-5-5-5-5-5-5-5-|
    E-|-5-5-5-5-5-5-5-5-2-2-2-2-2-2-2-2---------------------------------|
    
    G-|---------------------------------------------------------------------------------
    D-|--------------------------------------------------------------------------------
    A-|-------------------------------------------------------------------5-x-5-x-5-4-2--
    E-|-5-5-5-5-5-5-5-5-0-0-0-0-0-0-0-0-2-2-2-2-2-2-2-2-------------------
    
    G-|--------------------------------------------------------------------------------------|
    D-|---------------------------------------------------------------------------------------|
    A-|------------------------------------------------------------------5-x-5-x-5-4-2--|
    E-|-5-5-5-5-5-5-5-5-0-0-0-0-0-0-0-0-2-2-2-2-2-2-2-2----------------|
    
    G-|--------------------------------------------------------------------------------------------------
    D-|-------------------------------------------------------------------------------------------------
    A-|----------------------7-7-7-7-7-7-7-7-7-7-7-7-7-7-7-5-x-5-x-10-10--9--9-7-7-5-
    E-|-5-5-5-5-5-5-5-5--------------------------------------------------------------------------
    
    G-|----------------------------------------------------------------------
    D-|----------------------------------------------------------------------
    A-|--------------------------------------------5-x-5-x-10-10--9--9-7-7-5-
    E-|-5-5-5-5-5-5-5-5-2-2-2-2-2-2-2-2----------------------------
    
    G-|----------------------------------------------------------------------
    D-|----------------------------------------------------------------------
    A-|-----------------------7-7-7-7-7-7-7-7-5-x-5-x-10-10--9--9-7-7-5-
    E-|-5-5-5-5-5-5-5-5-------------------------------------------
    
    G-|-------------------------------------------------------------------------------------
    D-|---------------------------------------------------------------------------------------
    A-|--------------------------------------------5-5-5-5-5-5-5-5-5-5-5-5-5-5-5-5-|
    E-|-5-5-5-5-5-5-5-5-2-2-2-2-2-2-2-2------------------------------------------
    
    G-|-----------------------------------------------------------|
    D-|---------------------------------------------------------------------------------------
    A-|-3-3-3-3-3-3-3-3-3-3-3-3-7-7-7-7-7-7-7-7-7-7-7-7-7-7-7-7-7-|
    E-|-----------------------------------------------------------|
    
    G-|----------------------------------------------------------------------
    D-|---------------------------------------------------------------------
    A-|--------------------------------------------7-7-7-7-5-5-5-5-
    E-|-5-5-5-5-5-5-5-5-5-5-5-5-5-5-5-5-----------------
    
    G-|-------------------------------------------------------------------|
    D-|------------------------------------------------------------------------------------------|
    A-|--------------------------------------------7-7-7-7-5-5-5-5-7-7-7-7-5-5-5-5-7-|
    E-|-5-5-5-5-5-5-5-5-5-5-5-5-5-5-5-5--------------------------------------------5-|
    
    ¦--1>---3>-----------------------------…
  • >Means strum
    
    INTRO& VERSE
    G]-------------]
    D]-------------]
    A]----5>----6>-]
    E]-3>----6>----]
    
    CHORUS
    G]--------------------------------------------------------]
    D]--------------------------------------------------------]
    A]----2-2-4>----2-2-4>-3-3-3----2-2-4>----2-2-4>-3-3-3-7>-]
    E]-1>--------1>--------------1>--------1>-----------------]
    
    VERSE
    CHORUS
    VERSE…
  • >Means Strum
    
    INTROx2
    G]---------------------------------]
    D]---------------------------------]
    A]-5-5-5-5-7-7-9-9-10-10-10-10-12>-]
    E]---------------------------------]
    
    CHORUS
    G]-------------]
    D]-------------]
    A]----5>-------]
    E]-3>----3>-5>-]
    
    BRIDGE…
  • Intro:
    
    G------------------------------------------------------------------
    D------------------------------------------------------------------
    A-77777777-88888888------------------------------------------------
    E-----------------------------------------------------------------
    
    Verse:
    
    G------------------------------------------------------------------
    D------------------------------------------------------------------
    A-33333333-55555555-----------------------------------------------
    E-------------------------5555555555555555---11111111-------------
    
    G------------------------------------------------------------------
    D-----------------------------------------------------------------
    A------------------------------------------------------------------
    E-33333333-77777777----------------------------------------------2X
    
    Chorus…
  •             
    intro  
    G:------
    D:------
    A:------
    E:--0>--
    
    verse
    G:---------
    D:--2>-----
    A:-----3>-- 
    E:---------
    
    chorus
    G:-------
    D:-------
    A:---2>--
    E:-------
    
  • > MEANS STRUM
    
    INTROx2
    G]-------------------]
    D]-------------------]
    A]-5>-8>----5>-------]
    E]-------8>----1>-3>-]
    
    VERSE
    G]--------------]
    D]--------------]
    A]-5>-8-8-------]
    E]--------8>-5>-]
    
    BRIDGE1
    G]-------------]
    D]-------------]
    A]-------------]
    E]-6>-5>-6>-8>-]
    
    VERSE
    BRIDGE1
    CHORUS
    G]--------------------------------------]
    D]--------------------------------------]
    A]-5-5-8-----5-5-8-----5-5-8------------]
    E]-------8-8-------8-8-------8-8-6>-8-8-]
    
    VERSE
    BRIDGE1
    CHORUS
    
    BRIDGE2
    G]-------------]
    D]-------------]
    A]-5>----------]
    E]----8>-6>-5>-]
    
    OUTRO
    G]------------------------]
    D]------------------------]
    A]-5>-4-5-5-5-8>-7-8-10-8-]
    E]------------------------]…
  • > MEANS STRUM
    
    INTRO & VERSE       ON FORTH TIME
    G]-------------]   [-------------]
    D]-------------]   [-------------]
    A]----6>-------]x3 [----6>-9>-7>-]
    E]-4>----2>-0>-]   [-4>----------]
    
    CHORUS
    G]------------------------]
    D]------------------------]
    A]------------------------]
    E]-4>-5-4>-5-4>-5-4>-5-4>-]
    
    VERSE
    CHORUS
    
    RUN…
Наверх