Аккорды «Grammatrain»

Grammatrain
Grammatrain - это альтернативная рок-группа из Сиэтла, штат Вашингтон, которые были активны в христианской рок-индустрии в 1990-х годах. После расформирования в 1998 г., группа воссоединилась в 2009 г. и выпустила свой третий полноформатный альбом под названием Imperium в следующем году. Grammatrain - это альтернативная рок-группа из Сиэтла, штат Вашингтон, которые были активны в христианской рок-индустрии в 1990-х годах. После расформирования в 1998 г., группа воссоединилась в 2009 г. и выпустила свой третий полноформатный альбом под названием Imperium в следующем году. Скрыть...
Популярные аккорды Grammatrain:
алфавиту | просмотрам | случайно
  • G5                Em              G5                 Em
    I guess it's up to me to look like I'm the one whose fine.
    G5             Em              G5                Em
    You can only see the one who's not like your own kind.
    G5…
  • (introduction - 6 measures of guitar only)
    
    bass line in the introduction:
    
    G|------------|------------|------------|-----------|
    D|333303330330|2222-222-22-|333303330330|2222-222-2-|
    A|------------|----2---2--2|------------|----2---2-2|
    E|------------|------------|------------|-----------|
    
    
    (verse…
  • SONG IS IN 4/4 TIME
    
    VERSE NUMBER ONE:
    (E}-0-1-0-3-5-3-0-3-5-3-0-1-3-5-3-0-3-5
    
    PLAY VERSE ONE SEVEN TIMES
    
    
    CHORUS:
    
    {D}---------------------------------5-5-3---------------------------
    {A}---------5-5-5-5-5-5-5-5-6-5-5-5---------------5-5-5-5-5-5-5-5-6-
    {E}-0-0-0-5-------------------------------0-0-0-5-------------------
    
    
    {D}--------------(slide…
  • *Song in drop D tuning*
    
    
    Intro
    Bass line:  play it with some speed!
    G-----------------------------------------------|
    D-----------------------------------------------|
    A-----------------------------------------------|
    D---5--3--0--3--3---5--3--0--3--3--3--0---------|
    
    
    Guitar:
    e-----------------------------------------------------------------------------------------------------|
    B-----------------8--8--8--8---------------------8--8--8--8----------------------8--8--8--8-----------|
    G---7--7--7--7----------------------7--7--7--7-----------------------7--7--7--7-----------------------|
    D------------------------------7--7----------------------------7--7----------------------------7--7---|
    A-----------------------------------------------------------------------------------------------------|
    D-----------------------------------------------------------------------------------------------------|
    
    e-----------------------------------------------------------|
    B---8--8--8---------------Riff…
  • part A
    E-0-0-3-5-3-0-3
    
    part B
    E-3-3-0-0-0-0
    
    part C
    E-5-6-7   
    
    
    Song order
    A x8
    B x8
    C x2
    A x4
    B x8
    C x2
    A x9
    during lead  E-0-3-5-3-0-3-0-3-5-3-0-0-5-3-2  x5
    variation of A  x6
    C x4
    A x 12
  • Intro:
    -------------0-----------------0---------
    -----------------0-2-0-------------0-2-0-
    -2-2-2-2h3-----------2-2-2-2h3-----------
    ---------------3-----------------3-------
    
    
    Verse:
    -------------0-----------------0---------
    -----------------0-2-0-------------0-2-0-
    -2-2-2-2h3-----------2-2-2-2h3-----------
    ---------------3-----------------3-------
    
    -----------------------------0-----------
    ---0-0-0-0-----------------------0-2-0---
    -1---------3-2-3-1h2-2-2-2h3-------------
    -------------------------------3---------…
  • E-0-0-0-0-0-2-2-2-2-2-3-3-3-3-3-5-5-5-5-5- this first followed quickly
    by  E-7 A-5  then A-7-7-7-7-7-9-9-9-9-9-10-10-10-10-10-12-12-12-12-12
    E-3-3-3-3-3-3-3-0-0-0-0-0-0-0   x4
    E-6-6-6-6-6-6-6-0-0-0-0-0-0-0
    E-3-3-3-3-3-3-3-0-0-0-0-0-0-0…
  • Intro bass riff with undistorted guitar chords:
    
      E  D  E     D  E           D  G  Gb
    G--------------------------------------
    D--------------------------------------
    A--------------------------------------
    D-2--0--2--2--0--2--2--2--2--0--5--4---
    
    
    Riff…
  • SONG IS IN 4/4 TIME
    COUNT OFF TWO MEASURES (EIGHT COUNTS)
    
    
    INTRO:
    {A}-----2---2-2-----0-----0----
    {E}-0-0---0-----0-3---3-3---3-3
    
    PLAY INTRO SIX TIMES
    
    
    VERSE:
    {A}-----2-----2-----0---0--
    {E}-0-0---0-0---3-3---3---3
    
    PLAY…
Наверх