Аккорды «Grandaddy»

Grandaddy
Щедрая талантами земля Калифорнии в 1992 году подарила жизнь еще одному рок-формированию под уютным названием Grandaddy ("Дедуля" по-нашему). Инициатором создания команды и ее идейным вдохновителем стал Джейсон Литл (Jason Lytle), житель маленького городка Модесто, в музыкальной жизни - певец, гитарист, клавишник, композитор и автор текстов. В юности Джейсон профессионально занимался скейтбордом и посвятил бы этому занятию еще не один год, если бы не несчастный случай. Серьезные травмы обеих ног,… Читать полностью... Щедрая талантами земля Калифорнии в 1992 году подарила жизнь еще одному рок-формированию под уютным названием Grandaddy ("Дедуля" по-нашему). Инициатором создания команды и ее идейным вдохновителем стал Джейсон Литл (Jason Lytle), житель маленького городка Модесто, в музыкальной жизни - певец, гитарист, клавишник, композитор и автор текстов. В юности Джейсон профессионально занимался скейтбордом и посвятил бы этому занятию еще не один год, если бы не несчастный случай. Серьезные травмы обеих ног, правой руки и позвоночника вынудили его поставить крест на спортивной карьере. Какое-то время он поработал на заводе по переработке промышленных отходов, но в начале 90-х твердо решил посвятить себя музыке и начал обустраивать домашнюю студию звукозаписи. Первыми единомышленниками, разделившими его музыкальные пристрастия, стали бас-гитарист Кевин Гарсиа (Kevin Garcia) и барабанщик Аарон Берч (Aaron Burtch). Обоих он знал c середины 80-х, еще со школьной скамьи. В таком составе и начался отсчет биографии Grandaddy. История группы развивалась неторопливо и плавно, под стать их неспешному, вкрадчивому стилю игры. Именно так звучала неопсиходелия от ранних Grandaddy, лавировавшая между спейс-попом и инди-роком. Несколько лет ушло на репетиции, наработку репертуара, запись демо-кассет в домашней студии. Джейсон Литл, автор всех песен, черпал вдохновение в реалиях маленького провинциального городка. "Мы выросли в районе, где преобладало земледелие, люди здесь немного инертны и ленивы, - вспоминал он позднее. - Я всегда писал песни о том, что видел вокруг себя, что хорошо знал, и никогда не увлекался словесными абстракциями". Завсегдатаи местных клубов и кафе первыми выслушивали тихие, ненавязчивые излияния трех музыкантов. Стоит отметить, что музыканты Grandaddy на своих концертах одними из первых начали сочетать визуальные формы с живой музыкой и уже на заре 90-х украшали сцену экраном, на который проецировали специально подобранные картинки. "Внешне мы не самая впечатляющая группа, - рассказывает барабанщик Аарон Берч. - Мы и в молодости не были красавцами, а сейчас начинаем уже стареть. Мы не выделываем никаких трюков на сцене. Экран - это вынужденная мера, дань эпохе MTV. Он дает зрителям возможность расслабиться и развлечься". В 1994 году Grandaddy записали первый EP "Complex Party Come Along Theories", который, правда, остался в архивах. Спустя год творческая фантазия лидера группы потребовала новых вливаний. В коллективе появились еще два участника: гитарист Джим Фэйрчайлд (Jim Fairchild) и клавишник Тим Драйден (Tim Dryden). Звучание Grandaddy претерпело серьезные изменения, которые пошли только на пользу группе и решительно повлияли на ее дальнейшую судьбу. В 1995 году обновленный квинтет сделал еще одну студийную работу "Don't Sock the Tryer", которая также осталась неопубликованной. А затем Grandaddy записали семь треков, объединенных под названием "A Pretty Mess By This One Band". Еще довольно сумбурная запись, не избежавшая случайных влияний и несущая отпечаток разных стилей, которые формировали саунд команды, этот мини-альбом включал очень симпатичную композицию "Taster". Продюсированием диска музыканты занимались самостоятельно. Этого релиза было достаточно, чтобы заинтересовать руководство скромного инди-лейбла Will Records, который опубликовал ЕР и предложил Grandaddy заняться своим полноформатным дебютом. В октябре 1997 года первый лонг-плей команды был уже готов. Назывался он "Under the Western Freeway" и представлял собой гораздо более зрелую и сильную работу, хотя и создавался в тех же домашних условиях и продюсировался самостоятельно. На таких же свободных условиях - "Делайте то, что считаете нужным" - команда начала сотрудничать с лейблом-мэйджором V2, который через год переиздал их дебют. "Under the Western Freeway" не наделал шума, но обратил на себя внимание музыкальной прессы. Промо-сингл "Summer Here Kids", хоть и никак не проявивший себя в чартах, был назван синглом недели на страницах журнала "New Musical Express". Пытаясь разобраться, с чем они имеют дело, рецензенты сравнивали Grandaddy с группами Pavement, Weezer и Crooked Rain и особенно отмечали привлекательные и вместе с тем очень простые мелодии. С кем бы их ни сравнивали, важно было одно: команда сумела создать крепкий альбом, в котором теплая, искренняя и доверительная атмосфера сочеталась с несколько легкомысленными звуковыми экспериментами. В 1998 году калифорнийский квинтет опубликовал небольшую подборку лучших треков "The Broken Down Comforter Collection". А следующий год знаменовал начало нового этапа в биографии команды. Первой ласточкой обновленного звучания стал ЕР 1999 года "Signal to Snow Ratio". Готовя эту запись, музыканты попытались освежить свой саунд тщательно подобранными, фактурными элементами электронной музыки. Дальнейшие эксперименты в этом направлении зафиксированы на альбоме "Sophtware Slump", который был опубликован в мае 2000 года. Неплохую ротацию в радиоэфире получили новые треки "The Crystal Lake" и "Hewlett's Daughter". На лонг-плее "Sophtware Slump", наиболее удачном в карьере группы, группа расцветила свой саунд искрами клавишных, синтезированными звуками ветра, птичьего пения, эфирных помех. Не только музыкальный пейзаж приобрел несколько ирреальные, фантастические черты, но и темы песен обогатились новыми нюансами. Например, композиция "Jed the Humanoid" рассказывает историю всеми забытого, спившегося андроида. Другие композиции населяют пилоты, роботы, межпланетные рудокопы и программисты. Космическая грусть "Sophtware Slump" роднит этот альбом с "Good Morning Spider" Sparklehorse и "OK Computer" Radiohead. Хотя участники коллектива со всей серьезностью заявляют, что желания подражать этим командам у них никогда не было. Промо-туром в поддержку "Sophtware Slump" Grandaddy остались вполне довольны. С нескрываемым удовольствием они вспоминали о совместных выступлениях с Эллиотом Смитом (Elliot Smith), Flaming Lips, Radar Brothers и Home. 2000 год они считают одним из самых удачных в своей карьере. В этом же году, идя как всегда своим путем и стремясь все делать самостоятельно, музыканты взялись создать собственную страницу в интернете, не привлекая специалистов, хотя имели об этом самое смутное представление. Результатом они не очень довольны, зато не изменили своим принципам. Остались они верны и своей малой родине, не покинув скромный Модесто, даже когда ощутили вкус славы и получили реальную возможность перебраться в эпицентр шоу-бизнеса. Участников Grandaddy ничто не смогло выманить из родного города. "Я решил пойти против течения, - рассказывает Литл, - остаться и закрепиться здесь. Это наш шанс создавать подлинную, искреннюю музыку". В 2002 году квинтет выпустил подборку неизданных песен и би-сайдов "Concrete Dunes", а параллельно готовил свой четвертый студийный лонг-плей. По традиции, работа проходила в домашней студии, претерпевшей еще одну модернизацию. Появлению нового диска предшествовал ЕР "Floating Debris", а через несколько месяцев, в мае 2003 года, вышел и альбом "Sumday". Эта работа в каком-то смысле суммирует весь пройденный музыкантами путь (отсюда и название: "sum" - подводить итоги). 12 представленных треков были отобраны из 60 с лишним написанных фронтменом новых песен. Таким плодовитым он не был еще никогда с момента создания группы. Этот творческий всплеск совпал с активными гастролями 2001-02 годов, во время которых команда выступала с весьма интересными коллегами по цеху: Питом Йорном (Pete Yorn), Super Furry Animals и старым знакомым Эллиттом Смитом. На альбоме "Sumday" участники группы снова предпринимают попытку соединить два разнонаправленных начала - технологическое и личное, интимное, причем объединить их и на музыкальном и на текстовом уровне. Получилась симпатичная, ненавязчивая смесь элементов кантри-рока, софт-рока и новой волны. Особенно хорошо команде удаются композиции о человеческих отношениях: "Yeah Is What We Had", "The Warming Sun", "Saddest Vacant Lot in All the World" (одна из самых прочувствованных песен в их дискографии, напоминающая Beatles эпохи "Abbey Road"). Главным продюсером, как и раньше, выступил фронтмен команды Джейсон Литл. Если до сих пор диски Grandaddy никогда не фигурировали в чартах, то четвертому альбому повезло больше. Пока, правда, высшим достижением "Sumday" стал только 84 номер в рейтинге Billboard 200. В поддержку четвертого альбома Grandaddy гастролировали активно как никогда. На этот раз их приветствовала публика известнейших рок-фестивалей не только в США, но и в Европе, включая фестиваль в Гластонбери. Когда участников квинтета спрашивают сегодня о поставленных, но еще не достигнутых целях, они не сразу берутся отвечать. "Так много из того, о чем мы мечтали, стало реальностью... - говорит Аарон Берч. - Например, нам удалось поиграть со многими людьми, которыми мы всегда восхищались. Главное сейчас, мне кажется, подумать о новом альбоме. Неплохо было бы заработать пару баксов... А еще мне бы очень хотелось снова выйти на сцену с Эллиоттом Смитом". Последнее Аарону уже, к сожалению, не удастся: Смит покончил жизни самоубийством в конце 2003-го... Скрыть...
Популярные аккорды Grandaddy:
алфавиту | просмотрам | случайно
  • Intro: Emaj with some F over it
    
    E        D
    Remembering Jeez Louise
    C              A              G
    And all of the bedroom window screens
           F                 C
    Thrown away for our teenage dreams
    
    Bridge(?):…
  • Some notes sound an octave lower; I think the guy plays a 5-string.
    
    Intro:              Verse:
    G|----------------| |----------------|----------------|----------------|----------------|
    D|----------------| |----------------|----------------|----------------|----------------|
    A|3-----3---3-----|…
  • Use dropped D tuning (tune bottom E down a tone to D)
    
    Chords:
    
         DADGBE
    Cm   x35543
    Bb   x13331
    Eb   x65343
    Ab   66689x
    F7   333545
    G    55578x
    
    Intro:
    
    E-------------------------------------------------
    B------4--4-4-4--4-4--4------4-4-4--4--4-4--4-4-4-
    G------5--5-5-5--5-5--5------5-5-5--5--5-5--5-5-5-
    D------4--4-4-4--4-4--4------4-4-4--4--4-4--4-4-4-
    A--0----------------------------------------------
    E------------------------0------------------------
    
    Verse…
  • intro/chorus
    e[-------------------------
    B[-------------------------
    G[-0h2---020---------------
    D[-----3-----0--232---2553-
    A[------------------3------
    E[-------------------------
    
    e[----------------------------
    B[----------------------------
    G[-333333-444444-555555-------
    D[-333333-444444-555555-333333
    A[-111111-222222-333333-333333
    E[----------------------111111
    
    verse
    e[------------------
    B[------------------
    G[-10---------------
    D[-10-(12x)-8-------
    A[-8--------8-(12x)-
    E[----------6-------
    
    iterlude
    e[-----------------------
    B[-----------------------
    G[-----------------------
    D[-----------------------
    A[-----------3-----1-----
    E[-1---------------------
    
    intro…
  • Chords Used:
        C    F    Am  D7add9/F#  Dm   G    A#  G#
    e|--0----1----0-------0------1----3----6----4--|
    b|--1----1----1-------1------3----3----6----4--|
    G|--0----2----2-------2------2----4----7----5--|
    D|--2----3----2-------0------0----5----8----6--|
    A|--3----3----0-------0------x----5----8----6--|
    E|--x----1----x-------2------x----3----6----4--|
    
    
    Intro:
    |C…
  • Intro: G A D Bm
    
    G            
    In the town where i'm livin now
    A                 D                                   Bm
    Wedding rings reek and the records are held by the sad
    G         
    The cameras can't find any…
  • Intro:
    
    E|--------------------------|
    B|--------------------------|
    G|---------8------------8---|
    D|--------------------------| 
    A|--------------------------|
    E|--1s6-6-------6-6-6-------|
    
    Verse:
    
    E|------------------------------------------------------------------------|
    B|------------------------------------------------------------------------|
    G|--------8--------8------8----------6--------6------6---------6--------6-|
    D|------------------------------------------------------------------------|
    A|------------------------------------------------------------------------|
    E|--6--6-----6--6------6-------5--5-----5--5------5------0--0-----0--0----|
    
    E|-----------------------0-----0--------------------0----0-----|
    B|---------------------0---------0----------------0--------0---|
    G|------6------------1-------------1------------1------------1-|
    D|-----------------2--------------------------2----------------|
    A|---------------2--------------------------2------------------|
    E|--0----------0--------------------------0--------------------|
    
    Pre-Chorus:…
  • Tuning:standard
    
    Intro: noise
    
    Verse:
        C  G  Am E    F  D  C  G
    e|--3--3--5--0----1--5--3--3------------------------------------------------|
    B|--5--3--5--0----1--7--5--3------------------------------------------------|
    G|--5--4--5--1----2--7--5--4------------------------------------------------|
    D|--5--5--7--2----3--7--5--5------------------------------------------------|
    A|--3--5--7--2----3--5--3--5------------------------------------------------|
    E|-----3--5--0----1--------3------------------------------------------------|
    
    Solo:
    e|-:---------------------------------:--------------------------------------|
    B|-:---------------------------slow--:--------------------------------------|
    G|-:5--5-5-5/7--7-7-7\5--5-5-4-4b5r4-:--------------------------------------|
    D|-:---------------------------------:--2-times-----------------------------|
    A|-:---------------------------------:--------------------------------------|
    E|-:---------------------------------:--------------------------------------|
    
    e|--------------------------------------------------------------------------|
    B|--------------------------------------------------------------------------|
    G|--5--5-5-5/7--7-7-7\5--5-5-5/7-5/7-7-7--7-7-7/9--9-9-9p7--7-7-7/9--9-9-9p7|
    D|--------------------------------------------------------------------------|
    A|--------------------------------------------------------------------------|
    E|--------------------------------------------------------------------------|
    
    e|--------------------------------------------------------------------------|
    B|--------------8-8-8---8---------------------------------------------------|
    G|--7-7-7/9-9-9-------9---9~------------------------------------------------|
    D|--------------------------------------------------------------------------|
    A|--------------------------------------------------------------------------|
    E|--------------------------------------------------------------------------|
    
    e|--------------------------------------------------------------------------|
    B|------------------------------------------------------------10---10-9~----|
    G|--9-9-9-10-10-10-9-9-9-7-9-9~--7h9p7~--9-9-9-10-10-10-9-9-9----9----------|
    D|--------------------------------------------------------------------------|
    A|--------------------------------------------------------------------------|
    E|--------------------------------------------------------------------------|
    
    e|--------------------------------------------------------------------------|
    B|---9-10-12-12b13~-13r12-10--12b13~--13r12--10--8~-------------------------|
    G|--------------------------------------------------------------------------|
    D|--------------------------------------------------------------------------|
    A|--------------------------------------------------------------------------|
    E|--------------------------------------------------------------------------|…
  • -This is a simple tab for the rhythm guitar
    
     C
    I'm rolling down a well worn road
     Am
    I'm wondering if I'll ever know
     D9 or Dm?(not sure about either of those)
    If I'll be better than I was before
     G
    When I surface…
  • Tuning: Standard
    
    Chords Used
    
    C/G: 332010     C5: x355xx
    G:   320003     G5: 355xxx
    B7:  x21202     E5: 022xxx
    Am:  x02210     B5: x244xx
    D:   xx0232     A5: 577xxx
    E7:  022130
    
    
    C/G…
  • Standard Tuning - EADGBe
    
     
    C
    Just how
              Am
    How many times
                        F            G                    C          Am
    How many times have I sat right here and seen that skyline at twilight…
  • INTRO
    
          D   E7   G    D      E7  D 
    E ----2---0----3----2------0---2---------------------------|
    B ----3---0----0----3------3---3---------------------------|
    G ----2---1----0----2------0---2---------------------------|
    D…
  • Standard tuning
    
    The whole song follows this chord progression, listen for the specifics…
    
    F
    You didn't really die
    
    Bb
    You only went away
    
    Eb
    My drummer he saw you
    
    C
    Buying supplies about a week ago
  • Standard Tuning:
    E A D G B E
    
    Chords:
    
          B    F#Aug  E     F#    F#7
    
    e[----------------0-----2-----2------]
    B[----4-----4-----0-----2-----5------]
    G[----4-----4-----1-----3-----3------]
    D[----4-----5-----2-----4-----2------]
    A[----2-----------2-----4-----4------]
    E[----------------0-----2-----2------]
    
    -=-=-=-=-=-=-=-=-=-=-=-=-=-=-=-=-=-=-=
    
    
    
    B…
  • TUNING:
    all normal, no capo
    
    CHORDS :
            ||||||
    E       022100
    E7      020100
    B7      x2120x
    G       320033
    F       133211
    C       x32010
    Am      x02210
    Bb      x13331
    
    
    Am     F               C
    Sarah,…
  • Tuning: Standard
    
    Verse (Strum Chords)
    e|----------------------------------------------------------------------------|
    B|----------------------------------------------------------------------------|
    G|----7-----------------------------------------------------------------------|
    D|----7--------------------------------------5--------------------------7-----|
    A|----5--------------------------------------5--------------------------7-----|
    E|-------------------------------------------3--------------------------5-----|…
  • (intro x2)
    F    Fm              C      E  
         Doo doo doo doo doo
    
    C                  A7
    The tale I'm gonna tell
       Dm                  G
    Is about the group who couldn't say
    F                                  Fm…
  • ::Verse I::
    A                  D                A               
    go home mom and go home to your cop
                         D                     E
    you made us all feel weird you should just stop
    A                   D…
  • Timing might be a bit off... chorus is better played with barre chords. I use open 
    chords for the verse, but that's just me.
    
    Verse:
    
    Em      C                      Am
            Trouble with a capital T
    
            Em…
  • C
    Rear view mirror
    
    C
    What the hell
    
          Bm        Am        G
    While I've been trying to drive somewhere
    
    F                            D
    Real and nearer
    
    F                            D
    Real and nearer
    
    C
    Rear…
  • VERSE
    
    F Bb
    
    THEN CHORUS IS
    
    D G THEN Bb
    
    F
    The talk- it got so loud
    
    the songs cut out
                     Bb
    well that's when i'd had enough
                 F
    of all their talk and stuff
    
    
    F
    i had to bring…
  • ::Verse Riff I::
    G
    Hewlett's Daughter
    Am
    Loved her father, and I think she
    D                   G
    Loved me too for a little while
    
    ::Interlude::
    (played during the first verse riff)
    1|--------------------------------------------------------------------|
    2|--8---7-------------------------------------------------------------|
    3|-----------9---7---7----------------7-------------------------------|
    4|-----------------------10---9---7-------10---9---7-------7---9--9---|
    5|-----------------------------------------------------10-------------|
    6|--------------------------------------------------------------------|
    
    ::Verse…
  • TUNING:
    all normal, no capo
    
    CHORDS :
            ||||||
    E       022100
    D       xx0232 or xx023x (sounds better imho)
    D7M     xx0222 or xx0220 (sounds better imho)
    G       320033
    G*      355433
    Gm      355333
    Abm…
  • Standard tuning:
    E A D G B E
    
    Chords:
    
         C    F    E    Am   G     G/F 
      F/E
    
    e[---0----0----0----0----3-----1------1---------]
    B[---1----1----0----1----0-----0------1---------]
    G[---0----2----0----2----0-----0------2---------]
    D[---2----3----2----2----0-----0------3---------]
    A[---3----3----2----0----2-----2------3---------]
    E[-----------------------3-----3----------------]
    
    C…
  • Intro: ( F     F/E     F     F/C )  x2
    
    F     F/E    D5   D5/C
    She's in the kitchen,
    Bb     Bb/A   Bb/G
    Crying by the oven
       Bb         Bb/A    Bb/G
    It seems she really loved him
    
    He's so drunk he's
    Passed out…
  • ::Song::
    Em  
    You said I'd wake up dead drunk
                 F
    Alone in the park
                   C
    I called you a liar
                      G     G/E
    But how right you were
    Em           
    Air conditioned TV land, 20 grand…
  • E:----------------------------------------------------------------------|
    B:-11-11-11-8-77~~~~-11-11-11-8-77-7-8-5~~~-7-5-3~~~--------------------|
    G:----------------------------------------------------------------------|
    D:----------------------------------------------------------------------|
    A:----------------------------------------------------------------------|
    E:----------------------------------------------------------------------|
    
    E:----------------------------------------------------------------------|
    B:-11-11-12-77~~~~…
  • intro :
    G E A A7
    
    verse :
    G D A A7
    (intro again)
    
    chorus :
    G D G E
    G E
    A F#m G E
  • D    = X00200
    G    = 320000
    D/F# = 200232
    
    Time: 4/4
    
    Intro
    D G D G
    
    D                              G                          C         C
    Ten million pounds of plastic baby stuff there beyond the doors
    
    D…
  • A5 - x022xx Am - 002210
    F - 133211 G - 320033
    E - 022100 Bb - 113331
    Dm - xx0231 C - x32010
    Dsus2/E - xx2230 Dm/F - xx3231
    Fm - 133111
    
    [intro]
    
    A5
    e--------------------------------------------------------|
    b--------------------------------------------------------|
    g--------------------------------------------------------|
    d--0--0--4-4-4-5--5--5--5-5-5-0--0--3-3-3-4--4--4--4-4-4-|
    a--------------------------------------------------------|
    e--------------------------------------------------------|…
  • C   C   C   C
    
    
    C                F
    Dearest Mom your yearling son
        A              D
    Has sent a message through
         F            D            C         C
    He's disconected, but he still loves you
    
    
    C…
  • Normal tuning
    
    G                     Gm
      High rise carcasses left behind 
    D                            Bm            Bsus2
      For far away places you'll never find
    
    G Gm D Bm_Bsus2  (x2)
    
    G…
  • Intro:  A
    
    
            A
    I wanna walk up the side of the mountain, 
    
                 D
    I wanna walk down the other side of the mountain, 
    
            Bm
    I wanna swim in the rivers and lie in the sun, 
    
            A…
  • ::Intro::
    
    (during the keyboard, oo's and ahh's)
    
    Eb  Bb  F 
    Eb  Bb  F
    Eb  Bb  F
    Eb  Bb  F   C
    
    ::Song::
    Bb           Gm      F
     Go progress chrome   they paint the moon today
    Bb    Gm               F
     Some brand new future…
  • Tunning: EADG
    
                                  Riff 1                                     
    G|-----------------------------------------------------------------|
    D|-0000000000000000--------------------------------0000000000000000|
    A|-----------------0000000000000000--------------------------------|
    E|---------------------------------3333333333333333----------------|…
  • song is 3 4
    
    
    D      Gm      Dm      Bb      
    Gm      Cm      D    
    Eb      x4
    Ebm      x4
    Bb      x4
    
    
    Bb                        Gm    
      I never know their names, But i smile just the same
    Cm           F…
  • ::Section I::
    C
    I don't get you
    Am
    I don't get anyone
    G
    I've lost my way
    F           C  
    I don't get any of this
    
    ::Section II::
    C
    My x-ray's black
    Am
    Seems nothin's what I get
    G
    I've lost my way 
    F…
  • Tuning:normal
    
    Don't play the strings that have no frets in use.
    
    e|---------------------------------------------------------------------------|
    B|---------------------------------------------------------------------------|
    G|-11--11--11--11--11--11--11--11--11--11--11--11--11--11--11--11------------|
    D|-11--11--11--11--11--11--11--11--09--09--09--09--09--09--09--09------------|
    A|-10--10--10--10--10--10--10--10--10--10--10--10--10--10--10--10------------|
    E|---------------------------------------------------------------------------|
    
    
    
    e|---------------------------------------------------------------------------|
    B|---------------------------------------------------------------------------|
    G|-09--09--09--09--09--09--09--09--07--07--07--07--07--07--07--07------------|
    D|-07--07--07--07--07--07--07--07--07--07--07--07--07--07--07--07------------|
    A|-09--09--09--09--09--09--09--09--09--09--09--09--09--09--07--07------------|
    E|---------------------------------------------------------------------------|
    
    
    And…
  • Chords Used:
        Em   C    G   D/F#
    e|--0----0----3----2--|
    b|--0----1----3----3--|
    G|--0----0----0----2--|
    D|--2----2----0----0--|
    A|--2----3----2----0--|
    E|--0----x----3----2--|
    
    1st Verse:
    Em…
  • Tuning:Standard(eBGDAE)
    
    Numbers in parantheses are optional
    
    Intro
       G    Cm   G    Cm   F    Bb   Eb   F   G
    e|-------------------------------------------|
    B|------4---------4--------(3)--(8)-(10)-(12)|
    G|-4----5----4----5----2----3----8---10---12-|
    D|-5----5----5----5----3----3----8---10---12-|
    A|-5----3----5----3----3----1----6----8---10-|
    E|-3---------3---------1---------------------|
    
    Verse…
  • Tuning: Standard
    E a d g b e
    
    / = slide
    
    M = Mute
    
    
    intro/break/outro
    e[------------------------------|
    B[------------------------------|
    G[--6-/-7-7-------\-3-----------|
    D[--6-/-7-7--(x3)-\-3-----------|
    A[--4-/-5-5-------\-1-----------|
    E[------------------------------|…
  • *= let ring
    
    e |--------------------------------|
    B |--------------------------------|
    G |--5---5---5---5---5---5---5---5-|
    D |8---8---8---8---8---8---8---8---|
    A |--------------------------------|
    E |--------------------------------|
    
    e…
  • Intro: E, E/F#, E/G#
    
    C#                                     A
    Ride your bike all night and give your heart a break
                  E                          B
    And give your head a shove and fuck that subject love…
  • ::Song::
    Em  
    You said I'd wake up dead drunk
                 F
    Alone in the park
                   C
    I called you a liar
                      G     G/E
    But how right you were
    Em           
    Air conditioned TV land, 20 grand…
  • Verse
    e|----------------------------------------------------------------|
    B|----------------------------------------------------------------|
    G|-----------6-6--6--6--------------------------------------------|
    D|--2-2-2-2--6-6--6--6-----7--7-7-7---2-2--2--2-------------------|
    A|--2-2-2-2--4-4--4--4-----7--7-7-7---2-2--2--2-------------------|
    E|--0-0-0-0----------------5--5-5-5---0-0--0--0-------------------|
    Pm................................................................
    
    Pre…
  • Regular Tunning
    
    Intro/Verse - too many times
    e-15-14-12-----------------------------------12-12-14-15-
    B----------15-14-14-12--------------12-14-15-------------
    G----------------------14-12--12-14----------------------
    D--------------------------------------------------------
    A--------------------------------------------------------
    E--------------------------------------------------------
    
    after…
  • B : X 2 X 4 X X
    Em : 0 2 2 X X X
    C : X 3 5 5 X X
    A : 5 7 7 6 X X
    D : X 5 7 7 X X
     
    Intro : B
     
    Verse: Em, C, Em, Em (x2)
    Then : A, D, C, C (x2)
     
    Verse :
     
    Outro :
     A           D       C                   Em
    -------------------------------------------------------------------------------
    -13-------12---10--------------------------------------------9------10---12----
    -----------------------11---------9-11-12--------11---12-----------------------
    -------------------------------------------------------------------------------
    -------------------------------------------------------------------------------
    -------------------------------------------------------------------------------…
  • Intro:
    E A E A E
    
    Verse 1:
    A        E
    Outdated dreams have kept
    C#m          A
    Your friends around
    A              E
    I've seen them sad and wet
    C#m         A
    In cast off gowns
    
    Chorus 1:
    A
      I don't know though
    Am…
  • Standard Tuning:
    E a d g b e
    
    	h = hammer
    
    	Chords:
    
    	    C  B6  F  G  G/D  Am  E
    	    ^  ^   ^  ^  ^    ^   ^
    	e[--0--0---1--3-------0---0---]
    	B[--1--0---1--0--2----1---0---]
    	G[--0--1---2--0--0----2---0---]
    	D[--2--0---3--0--0----2---2---]
    	A[--3--2---3--2--2--------2---]
    	E[------------3--3------------]
    
    	These…
  • Tuning: Standard (EADGBe)
    
    Gtr 1: Electric, Distorsion, bridge pick-up
    Gtr 2: Acoustic
    
    Intro
    Gtr 1
    e---------------------------
    B---------------------------
    G-6-6-6-6-6-----------------
    D-6-6-6-6-6-4-4-4-4-4-------
    A-4-4-4-4-4-4-4-4-4-4-------
    E-----------2-2-2-2-2-------
    
    
    Verse…
  • C
    sleigh bells ring
    are you listening
             G
    in the studio
    the lights are glistening
    a beautiful sight
          G7
    we're happy tonight
         F           G             C
    Alan Parsons in a winter wonderland
    
    C
    gone…
  • Standard Tuning:
    E a d g b e
    	
    	
    	CHORDS:
    	
    	    Gm  D   C6  A#  Bm  A  G
    	    ^   ^   ^   ^   ^   ^  ^
    	e[--3-------------------0--1-----------]
    	B[--3---3---1-----------2--0-----------]
    	G[--3---2---2---3---4---2--0-----------]
    	D[--5---4---0---0---0---2--0-----------]
    	A[--5---5---3---1---2------2-----------]
    	E[--3----------------------3-----------]
    	
    	Piano…
  • TUNING:
    all normal, no capo
    
    CHORDS :
            ||||||
    E       022100
    D       xx0232
    Dsus2   xx0230
    G       320003
    G*      320033
    G7      320001
    F       133211
    C       x32010
    
    
        C…
  • 1st Verse:
    G|----------------|----------------|----------------|----------------|
    D|----------------|----------------|----------------|----------------|
    A|----------------|----------------|----------------|----------------|
    E|3-3---3-3-3---3-|3-3---3-3-3---3-|5-5---5-5-5---5-|5-5---5-5-5---5-|…
  • Okay, so this actually starts on A#, but that's awkward for guitar, so I show it below
    in G.  But to play along with the recording, use: Bb - A#/A – A#/G# - D7 – Eb - F
    
    
    G        G/f#       G/F
    Siamese, Portugese,…
  • Bb                            F  A
    Branches waving madly in the air
    Bb                                  F  A
    Waving 'round like they don't even care
    
    Bb                              F  A
    Last time I considered leaving…
Наверх