Аккорды «Green Day»

Green Day
Green Day (русск. зелёный день - на американском сленге означает день «дуракаваляния», проведенный за курением марихуаны) — американская панк-группа. Состоит из трёх участников: Билли Джо Армстронга (вокал, гитара), Майка Дёрнта (бас гитара, бэк вокал), Тре Кула (ударные). Green Day первоначально были частью панк-рок среды, сформировавшейся вокруг панк-клуба 924 Gilman Street (Беркли). Их первые альбомы, записанные на независимой компании Lookout!Records, позволили группе заработать множество… Читать полностью... Green Day (русск. зелёный день - на американском сленге означает день «дуракаваляния», проведенный за курением марихуаны) — американская панк-группа. Состоит из трёх участников: Билли Джо Армстронга (вокал, гитара), Майка Дёрнта (бас гитара, бэк вокал), Тре Кула (ударные). Green Day первоначально были частью панк-рок среды, сформировавшейся вокруг панк-клуба 924 Gilman Street (Беркли). Их первые альбомы, записанные на независимой компании Lookout!Records, позволили группе заработать множество фанатов. В результате группа вместе с другими калифорнийскими панками (The Offspring, Rancid) подняла волну огромного интереса к панк музыке не только в США, но и во всём мире. Green Day является частью калифорнийской панк-рок сцены. Друзья детства Билли Джо Армстронг (гитара, вокал) и Майк Дёрнт (бас, настоящее имя Майкл Притчард) создали свою первую группу, Sweet Children, в Родео, Калифорния, когда им было по 14 лет. В 1989 году в группу был приглашён барабанщик Эл Собрант (Al Sobrante, настоящее имя John Alan Kiffmeyer) и они поменяли название на Green Day (в честь одной из своих песен). В тот же год группа независимо выпускает свой первый EP - 1,000 Hours, который был хорошо принят в панк-рок кругах. Позже группа подписывает контракт с независимым местным лейблом Lookout! Records. В этом же году Green Day выпускают свой первый альбом 39/Smooth. Через некоторое время после выпуска альбома, группа меняет барабанщика на Тре Кула (Tre Cool, настоящее имя Frank Edwin Wright III). Он становится постоянным участником группы. В 1992 году Green Day выпускают свой второй альбом Kerplunk. Успех Kerplunk привлёк внимание больших лейблов, и в итоге группа подписывает контракт с Reprise. Дебютом на этом лейбле стал альбом Dookie, выпущенный весной 1994 года. Благодаря поддержке MTV песни «Longview», Dookie становится хитовым альбомом. Green Day продолжают продвигаться в массы летом того же года с песней «Basket Case», которая была в верхушке американских хит-парадов пять недель. В конце лета группа выступает на Woodstock ’94. После этого, продажи Dookie возрастают. Позже, сингл «When I Come Around» покоряет американские хит-парады. К 1995 году в США было продано более 5 миллионов копий альбома Dookie, а всего в мире - около 11 миллионов. Dookie выиграл премию Grammy 1994 года за лучшее исполнение в альтернативной музыке. В 1995 году был выпущен альбом Insomniac, а летом того же года песня «J.A.R» из саундтрека к фильму Angus покоряет рок-чарты. Продажи Insomniac пошли хорошо - к весне 1996 года было продано около двух миллионов копий, но ни один из синглов, включая «Brain Stew/Jaded», не стали такими популярными, как синглы с Dookie. Весной 1996 года Green Day внезапно отменяют европейское турне, и группа проводит целый год отдыхая и готовя материал для нового альбома. Результатом этого стал лучший, по мнению многих, альбом группы - Nimrod. Nimrod был хорошо принят критиками и фанатами. В первую неделю после выпуска было продано 80 000 копий и он оказался на 10 месте чарта Billboard. Первым синглом с альбома стал «Hitchin’ a Ride». Он поднялся на пятое место в хит-парадах и оказался в жёсткой ротации на MTV и MuchMusic. Следующий сингл поднялся не выше второго места, но стал одной из самых известных песен Green Day - «Time of Your Life (Good Riddance)», где Билли Джо играет на акустической гитаре и поёт. Nimrod был продан тиражом в 2 миллиона экземпляров и стал самым плохо продаваемым за всю историю сотрудничества Green Day с большим лейблом. Спустя примерно два года затишья, в 1999 году Green Day возвращаются на сцену, чтобы сыграть на концерте Нейла Юнга «Bridge School Benefit Concert», их первое акустическое выступление. Группа начинает записывать новый альбом - Warning. Они решают уволить нового продюсера, Скотта Лита, и спродюсировать альбом сами, делая это впервые после Kerplunk’а. После записи альбома группа становится хедлайнером тура 2000 Vans Warped Tour и обретает много новых поклонников. Warning был выпущен осенью 2000 года. Спустя четыре недели первый сингл с этого альбома, «Minority», покоряет Billboard’s Modern Rock чарт. Ни одна из песен Green Day не покоряла хит-парады так быстро. В 2001 году группа выпускает компиляцию своих старых песен, плюс две новые, «Maria» и «Poprocks & Coke», которую решают назвать International Superhits!. Весной 2002 года Green Day отправляются в совместное с Blink-182 турне Pop Disaster Tour. Летом 2002 года вышел сборник песен с синглов и редких записей Shenanigans. Следующий альбом стал поворотным. Итак, группа вошла в студию, чтобы написать и записать материал для нового альбома, веря, что он будет назван «Cigarettes and Valentines». После завершения 20 треков — внушительное уподобление альбома к Nimrod и Warning, они были украдены из студии. Группа, понятно в расстройстве, не хотела пробовать освежить украденный альбом и вместо этого начала с клятвы, что сделает даже лучше, чем прежде. Кроме того, долгое время группа пыталась уладить некоторые разногласия, которые возникли после обвинений Дёрнта и Кула, что Армстронг — «Нацист группы» и склонен к позерству, чтобы отвлекать внимание от других членов группы. После восстановления демократии в группе, творческие шлюзы открыли так, что каждый мог предложить что-то новое — наиболее особенно это проявилось в создании двух 9-минутных треков для предстоящего альбома Green Day. Билли Джо также заявил, что он предварительно боялся «мозолистой» игры соло на гитаре, но в конечном счете решился («я собираюсь играть fucking вещь…») и играл на этом альбоме всякий раз, когда это было необходимо. Окончательный альбом, American Idiot, дебютировавший как № 1 в чартах Billboard (что стало настоящим рекордом в творчестве группы) был поддержан успехом одноименного первого сингла с альбома. Альбом был объявлен как «панк-рок-опера», или более точно «альбом концепции», который следит за поездкой фиктивного «Иисуса Пригорода» («Jesus of Suburbia»). В течение альбома, «Иисус» становится увлечённым наркотиками, делая их, называет себя «Святым Джимми»(«St. Jimmy»); влюбляется в девушку, под именем «Whatsername» (что дословно переводиться как «какое-то-там-имя»); учится жить и растёт, как человек. В предпоследней песне альбома («Homecoming»), когда говорится, что Cв. Джимми совершает самоубийство, стихи подразумевают, что Джимми, возможно, образ Иисуса (Ст.:«Jimmy died today, he blew his brains out into the bay, in the state of mind, it’s my own private suicide»). Другой пример из песни «Letterbomb» почти доказывает это (Ст.:«You’re not the Jesus of Suburbia, the St. Jimmy is a figment of, your father’s rage and your mother’s love»). Альбом мог также быть описан как антивоенная аллегория против политики Джорджа Буша и против вторжения в Ирак. Однако, песня «Wake Me Up When September Ends» отворачивается от главной темы оперы и рассказывает об отце Билли Джо, который умер когда ему, Армстронгу, было 10 лет. Другим значимым поворотом в жизни группы было то, что члены группы отвергли инструменты их торговой марки. Билли Джо Армстронг заменил свою гитару от точных копий Fender Stratocaster Copy, на которой он играл начиная с 10 лет, на Gibson Les Paul Junior. Армстронг однако продолжает использовать его Strat копию на каждом живом показе. Майк Дёрнт использовал свою Gibson G-3 бас-гитару для нескольких из альбомов, например, для Nimrod, но теперь он играет на Fender Precision Bass. Точные дубликаты его гитары сделаны Фендером, и они называются Mike Dirnt Precision Bass. Тре Кул также давно ассоциировался с Slingerland, который он использовал ещё в годы Nimrod, но сейчас начал использовать барабаны Ludwig-Musser. С «American Idiot» также отмечаются изменения в имидже. В то время как в прошлом они красили свои волосы в различные цвета (в пределах от красного к зеленому и розовому, и обратно) и появлялись в разнообразной одежде, сейчас они начали носить черные рубашки с тощими галстуками и красить волосы в более простые цвета подобно платине и черному. Также Тре и Билли Джо начали использовать карандаш для глаз. В течение всего тура, Билли Джо носил на ремне гитары несколько значков с изображением ручных гранат в форме сердца. «American Idiot» взял Grammy в 2005 в номинации «лучший рок-альбом» и был выдвинут на 5 других. Песня «American Idiot» была показана в видеоигре «Madden NFL 2005» и «Holiday» в игре «Tony Hawk’s American Wasteland», в которой Билли Джо Армстронг является также героем. В течение всего 2005 года группа совершала турне, продвигая и рекламируя альбом. Этот тур продолжил некую театральность показов Warning и Shenanigans. Они также исполнили кавер-версии песен «We Are the Champions» группы Queen, «Shout» The Isley Brothers, «Outsider» The Ramones, и «Stand by Me» Ben E. King. Кульминацией показа стал выбор 3 фанов из толпы, чтобы стать на сцену и исполнить кавер-версию песни Operation Ivy «Knowledge», используя инструменты группы. В конце песни, человек, который играл вместо Армстронга, мог держать его гитару (или точную копию гитары детства Армстронга «Blue»), а человек, который играл на барабанах Тре или в некоторых случаях на басе Майка ныряет с дорожки в толпу. В турне для «American Idiot», они сделали запись двух концертов в Milton Keynes National Bowl, в Англии. Эти записи были выпущены как живой CD & DVD под названием «Bullet in a Bible» 15 ноября, 2005. Заключительные показы из их кругосветного путешествия в 2005-м были в Сиднее и Мельбурне (Австралия) 14 и 17 декабря соответственно. 10 января 2006 года Green Day был награжден People’s Choice Award как любимая группа. Также в 2005 году, в австралийской Triple J’s Hottest 100 песня «Jesus of Suburbia» была названа самой длинной когда-либо песней в чарте (№ 61), которая длится 9 минут 8 секунд. Green Day выиграл два Kids Choice Awards Blimps в 2006 (любимая музыкальная группа и любимая песня (Wake Me Up When September Ends)). В начале 2007 года культовая ирландская рок-группа U2 записала дуэт с панк-рокерами Green Day. Примечательно, что в последний раз ирландцы пели дуэтом с Полом Маккартни два года назад. 15 мая 2009 года Green Day выпустили 21st Century Breakdown — свой восьмой студийный альбом. Альбом сразу возглавил национальные чарты более 20 стран, а многие песни этого альбома (такие как «Know Your Enemy», «21 Guns») стали супер-хитами. Проданный тираж альбома по состоянию на 10 июля составил 1.7 млн копий. В альбоме два главных персонажа. Основная – Глория, которая стремится удержаться за свою веру, пытается получать жизненную энергию и излучать свет. Её оппонент – Кристиан, который становится жертвой своих собственных демонов. И вместо того, чтобы жить дальше, он пытается покончить с жизнью. Политическая же сторона альбома заключается в тех разных вещах, которые испытали американцы за последние 5 лет, такие как природные катастрофы или разнообразные кризисы. Мы хотим придать смысл тому, что мы смотрим по телевизору или видим в Интернете. Другими словами – тому, что губит нас. Основной посыл – поиски смысла в этих безнадёжных временах и всеобщем хаосе. Уже вышло два сингла по новому альбому - «Know Your Enemy» и «21 Guns». Стоит отметить что клип «21 Guns» победил сразу в трёх номинациях MTV Video Music Awards - «Лучшая режиссура», «Лучшая операторская работа» и «Лучшее рок-видео» . «Самое волнующее в 21st Century Breakdown — понимание того, что Green Day не нужно было себя насиловать, чтобы сочинить эти песни. Они не пытаются ни с кем соревноваться, а лишь высказывают свои собственные мысли. Любая песня — как единое целое, и каждая добавляет всё новые частички смысла в общую тему. И, надо сказать, что музыканты проделали настоящую работу, достойную звания мировых рок-звёзд. Green Day стали единственной панк-группой, которая пережила непростые для рок-культуры 90-е годы, подхватила упавшее знамя и теперь гордо несёт его вперёд. Их новый альбом — свеж и впечатляющ. Уверен, что многие будут шокированы. Приятно шокированы…» Отзыв о «21st Century Breakdown», журнал Rolling Stone. Грэмми на 52-ой ежегодной музыкальной премии «Grammy» 21 Century Breakdown победил в номинации «Лучший рок-альбом года». 8 июня 2010 года в свет вышла игра Green Day: Rock Band. 19 марта 2010 года Билли Джо Армстронг, в интервью журналу «Kerrang!», сообщил о начале записи 9 студийного альбома группы. Хотя музыканты ещё не выпустили девятый альбом, в Интернете уже появились сведения о нём. На сцене Green Day уже исполнили несколько новых песен - Cigarettes and Valentine, Stay the Night, Dreamcatcher, Olivia. В конце декабря был анонсирован выход концертного альбома «Awesome as Fuck». Альбом был записан во время европейского и североамериканского туров, включает в себя CD и DVD (17 и 16 песен соответственно). Дата выхода: 22 марта 2011 года. Состав группы: Билли Джо Армстронг (17 февраля 1972 года). В группе: вокал, гитара, также играет на губной гармошке, мандолине, барабанах, пианино. Семейное положение: женат на Адриенн Нессер со 2 июля 1994-го. У них двое детей: Джозеф (родился в марте 1995-го) и Джейкоб (появился в сентябре 1998-го). А ещё он вегетарианец, играет на гитаре в группе Pinhead Gunpowder. Непонятно, за какие заслуги аист принёс простому калифорнийскому дальнобойщику и официантке такого талантивого сына. В 3 года Билли Джо начал подпевать джазовым пластинкам отца, а уже в 5 лет стал солистом школьного хора! Когда Билли было 10, его отец умер от рака лёгких и, чтобы помочь матери, Билли пришлось устроиться на работу в забегаловку. Там Билли Джо и подружился с будущим басистом Green Day Майком. Правда, тогда их связала не музыка: ребята вместе драили полы кафешки два раза в день: утром и вечером. Когда Билли стукнуло 14, они с Майком создали группу Sweet Children («Милые детки»), которую потом переименовали в Green Day (по названию одной из песен). Тогда Билли навсегда бросил швабру и взял в руки подаренную мамой гитару — голубую Fender Stratocaster — тоже навсегда. Армстронг до сих пор на ней играет и ласково зовёт её Blue («Голубая»). Blue — первая подруга жизни. Второй стала жена Адриенн, с которой 18-летний Билли Джо познакомился на концерте Green Day в Миннесоте. К Билли подошла девушка с чёрными дредами и спросила, где можно купить их альбом. Вместе с альбомом Адриенн получила сердце молодого панк-рокера: чтобы увидеть её снова, Билли уговорил менеджера устроить ещё один концерт в этом штате. Через 4 года они поженились, и с тех пор Билли Джо, несмотря на славу и толпы фанаток, остаётся примерным семьянином. На всех красных дорожках он появляется с женой, посвящает ей песни и во всех интервью говорит, что Адриенн — лучшее, что с ним случалось в этой «fuckin’ life». Фрэнк Эдвин Райт III (9 декабря 1972 года). В группе: барабаны, перкуссия, также играет на аккордеоне, гитаре. Семейное положение: два раза женился: на Лисии Лайонс в 1995 году и на Клаудии в 2000-м, с обеими развёлся. Есть двое детей — дочка Рамона от первой жены и сын Франкито от Клаудии. Также он выступает за легализацию марихуаны, не любит Джорджа Буша, приходится крёстным отцом сыновьям Билли Джо. Вообще-то Фрэнк в детстве хотел работать клоуном. Барабанщиком стал случайно: в 12 лет его сосед Лоуренс Ливермор позвал Фрэнка ударником в свою группу Lookout. Тогда Фрэнку и придумали крутую кличку — Тре Кул (Tre Cool). Если закрыть глаза на неправильное написание французского слова tres («очень»), прозвище можно перевести как «очень крутой». Впрочем, таким его считали не все. Сестра Тре с ужасом вспоминает, как он начинал осваивать ударные: «Фрэнки стучал чем попало — круглые сутки и где только можно! В магазине, в машине, дома и на улице! Меня это жутко бесило». Нервы сестры убились не зря: со временем Фрэнк действительно стал «тре кулом». Когда первый барабанщик Green Day Эл Собранте бросил музыку ради учёбы в универе, Билли и Майк переманили Фрэнка из Lookout. Кстати, из-за гастролей группы Тре Кул даже самоисключился из колледжа. Майкл Притчард (4 мая 1972 года). В группе: бас-гитара, бэк-вокал, также играет на гитаре, барабанах. Семейное положение: Майк женился в 1996 году и даже успел завести ребёнка — у него есть дочь Эстелла-Дезире. Но в 1999-м жена Анастасия от Дёрнта свалила — не выдержала постоянных гастролей мужа. Он женился ещё раз — на Саре в 2003 году, а в 2004-м опять развёлся. Кроме Green Day, он играет на бас-гитаре в группе The Frustrators. Мать Майка была наркоманкой, поэтому в детстве его отдали в приёмную семью. Когда Майку исполнилось 7 лет, его приёмные родители развелись, а сводная сестра в 13 лет ушла из дома. В пятом классе он познакомился с Билли Джо, и они сразу подружились: у обоих были траблы в семье и оба любили музыку. Тогда же он и получил своё прозвище: играя на бас-гитаре, Майк издавал один и тот же звук — «дёрнт-дёрнт-дёрнт». Хотя в остальном мире этот звук называется «дрынь», Майкла назвали всё-таки Дёрнтом. В 15 лет Майк поселился в доме Билли Джо, но мать Армстронга не смогла заплатить по всем счетам, и пришлось съехать. Дёрнт стал жить в «панковском общежитии» — заброшенном доме, где тусили все местные панки. Кстати, несмотря на все трудности, Майкл продолжал учиться и единственный в Green Day имеет высшее образование. 1987 Дискография: Студийные альбомы: 1991: 1,039/Smoothed Out Slappy Hours 1992: Kerplunk! 1994: Dookie 1995: Insomniac 1997: Nimrod 2000: Warning 2001: International Superhits 2002: Shenanigans 2004: American Idiot 2009: 21st Century Breakdown 2012: ¡Uno! 2012: ¡Dos! 2013: ¡Tré! Синглы: 1991: 1,039/Smoothed Out Slappy Hours 1994: Longview 1994: Basket Case 1994: When I Come Around 1995: Geek Stink Breath 1995: Stuck with Me 1995: Brain Stew / Jaded 1996: Walking Contradiction 1997: Hitchin’ a Ride 1997: Good Riddance (Time of Your Life) 1998: Redundant 1998: Nice Guys Finish Last 2000: Minority 2001: Warning 2001: Waiting 2001: Macy’s Day Parade 2002: Poprocks & Coke 2004: American Idiot (Single) 2004: Holiday 2004: Boulevard of Broken Dreams 2005: Wake Me Up When September Ends 2005: Jesus of Suburbia 2007: Working Class Hero (cover John Lennon) 2009: Know Your Enemy 2009: 21 Guns 2009: 21st Century Breakdown 2010: Last of the American Girls 2010: When it's time 2012: Oh love 2012: Kill The DJ Скрыть...
Популярные аккорды Green Day:
алфавиту | просмотрам | случайно
  • Gsus2 Em       Cadd9   D      C
    E|--3-----0--------0-------2------0--|
    B|--3-----0--------3-------3------3--|
    G|--0-----0--------0-------2------0--|
    D|--0-----2--------2-------0------2--|
    A|--2-----2--------3-------x------3--|
    E|--3-----0--------x-------x------x--|…
  • Intro:(Palm mute)
    C5 G5 A5
    E|-------------------------------------------------------------------------|
    B|-------------------------------------------------------------------------|
    G|-5-5-5-5--5-5-5-5--------------------------------------------------------|
    D|-5-5-5-5--5-5-5-5-5-5-5-5--5-5-5-5--7-7-7-7--7-7-7-7--7-7-7-7--7-7-7-7---|
    A|-3-3-3-3--3-3-3-3-5-5-5-5--5-5-5-5--7-7-7-7--7-7-7-7--7-7-7-7--7-7-7-7---|X2
    E|------------------3-3-3-3--3-3-3-3--5-5-5-5--5-5-5-5--5-5-5-5--5-5-5-5---|
    
    Verse:1…
  • Fm           
    Little girl, little girl
                  C# 
    Why are you crying?
       C                  C7                 Fm
    Inside your restless soul your heart is dying  
    
    Little one, little one
    Your soul is purging
    Of love…
  • Em       G              Dsus2          Esus4         Em
    I walk a lonely road, the only one that I have ever known
    Don't know where it goes, But it's home to me and I walk alone
    
    Em G Dsus2 Esus4
    
    I walk this empty street,…
  • Intro(Bass) -> Played on The Eletric Guitar, this part sucks...
                   play it on bass that it's perfect :)
    G|-----------------------------------------------|
    D|--------11-------11-------11-------11-------11-|
    A|----9-9------------------------9-9-------------|
    E|-----------9-9-9----9-9-9-------------9-9-9----|
    
    Chords…
  • ------------------------------------------------------------------------------
    -4-4-x-4-4-4-x-4-4-4-x-4-4-4-x-4-4-4-x-4-4-4-x-4-4-4-x-4-4-4-x----------------
    -4-4-x-4-4-4-x-4-4-4-x-4-4-4-x-4-4-4-x-4-4-4-x-4-4-4-x-4-4-4-x----------------
    -4-4-x-4-4-4-x-4-4-4-x-4-4-4-x-4-4-4-x-4-4-4-x-4-4-4-x-4-4-4-x----------------
    -2-2-x-2-2-2-x-2-2-2-x-2-2-2-x-2-2-2-x-2-2-2-x-2-2-2-x-2-2-2-x----------------
    ------------------------------------------------------------------------------
    
    
    ------------------------------------------------------------------------------
    -------------------------------0-0-0-x-0-0-0----------------------------------
    -------------------------------x-x-x-x-x-x-x----------------------------------
    -6-6-x-6-6-6-x-6-6-6-x-6-6-6-x-2-2-2-x-2-2-2-x-4-4-4-x-4-4-4-x----------------
    -6-6-x-6-6-6-x-6-6-6-x-6-6-6-x-2-2-2-x-2-2-2-x-4-4-4-x-4-4-4-x----------------
    -4-4-x-4-4-4-x-4-4-4-x-4-4-4-x-0-0-0-x-0-0-0-x-2-2-2-x-2-2-2-x----------------
    Play…
  • INTRO:
    e------------------------------|
    B------------------------------|
    G-6-66-66-66-6-6-66-66-6-99----|
    D-7-77-77-77-7-7-77-77-7-99----|
    A-7-77-77-77-7-7-77-77-7-77----|
    E-5-55-55-55-5-5-55-55-5-------|
    
    VERSE:
    e------------------------------------------------------------------------------|
    B------------------------------------------------------------------------------|
    G6-66-66-66-66-7-77-77-77-77-6-66-66-66-66-9-99-99-99-99-7-77-77-77-77-6-66-6-6|
    D7-77-77-77-77-7-77-77-77-77-7-77-77-77-77-9-99-99-99-99-7-77-77-77-77-7-77-7-7|
    A7-77-77-77-77-5-55-55-55-55-7-77-77-77-77-7-77-77-77-77-5-55-55-55-55-7-77-7-7|
    E5-55-55-55-55---------------5-55-55-55-55-----------------------------5-55-5-5|
    
    CHORUS:
    e-----------------------------------------------|
    B-----------------------------------------------|
    G-6-0--------000-7-6-99-999-777-7-6-99-999-7----|
    D-7-2-44-444-222-7-7-99-999-777-7-7-99-999-7----|
    A-7-2-44-444-222-5-7-77-777-555-5-7-77-777-5----|
    E-5-0-22-222-000---5--------------5-------------|
    
    BRIDGE…
  • Verse
       G5   D5   E5   C5  (x8)
    E|------------------|
    B|------------------|
    G|------7----9----5-|
    D|-5----7----9----5-|
    A|-5----5----7----3-|
    E|-3----------------|
    
    Chorus
       A5   C5   (x2)
    E|--------|
    B|--------|
    G|------5-|
    D|-7----5-|
    A|-7----3-|
    E|-5------|
    
    Bridge…
  • E||--------------------------|-----------------0--------|
    B||-----------1--------------|--3--------1--------1-----|
    G||-----0--------0-----0-----|-----0--------2--------0--|
    D||--------2--------------0--|--------3-----------------|
    A||--3-----------------------|--------------------------|
    E||-----------------3--------|--------------------------|
    
    
    
    --------------------------|--------------------------|--------||
    --------------------------|-----------------3--------|--------||
    -----------1--------------|--1--------0--------0--2--|--0-----||
    --------0-----0--------0--|-----0--------0--------3--|--2-----||
    --0--2-----------0--2-----|--------------------------|-----2--||
    --------------------------|--------3-----------------|-----3--||
    
    
    
    E||--0---------------------|-------0---------------|--0---------------------|
    B||-------3--1--1----1--1--|--3----1----1----------|-------3--1--1----1--1--|
    G||------------------------|--4---------2----2--0--|------------------------|
    D||------------------------|-----------------------|------------------------|
    A||------------------------|-----------------------|------------------------|
    E||------------------------|-----------------------|------------------------|
    
    
    
    -------0-------------|--0---------------------|-------0---------------|
    --3----1----1--------|-------3--1--1----1--1--|--3----1----1----------|
    --4---------2--------|------------------------|--4---------2----2--0--|
    ---------------------|------------------------|-----------------------|
    ---------------------|------------------------|-----------------------|
    ---------------------|------------------------|-----------------------|
    
    
    
    --0---------------------|-------0--------------||-----------------------|
    -------3--1--1----1--1--|--3----1----1------1--||---1------1--0--0------|
    ------------------------|--4---------2---------||*----------------------|
    ------------------------|----------------------||*----------------------|
    ------------------------|----------------------||-----------------------|
    ------------------------|----------------------||-----------------------|
    
    
    
    ------------------------|-------------------------|---------------------0--|
    --1--1--0------------1--|--1--1--1--1--0----1--1--|--1--1--0--1--3---------|
    -----------2--0---------|-------------------------|------------------------|
    ------------------------|-------------------------|------------------------|
    ------------------------|-------------------------|------------------------|
    ------------------------|-------------------------|------------------------|
    
    
    
    --0--------------------|------------------------|-------------------------|
    -------3--1--3------1--|--1--1--0---------------|--1--1--1----1--1--1--1--|
    -----------------------|-----------2--0------0--|-------------------------|
    -----------------------|------------------------|-------------------------|
    -----------------------|------------------------|-------------------------|
    -----------------------|------------------------|-------------------------|
    
    
    
    ------------------------|--0---------------------|-------0-------------|
    --1--1--1--1--1----1----|-------3--1--1----1--1--|--3----1----1--------|
    ------------------------|------------------------|--4---------2--------|
    ------------------------|------------------------|---------------------|
    ------------------------|------------------------|---------------------|
    ------------------------|------------------------|---------------------|
    
    
    
    --0---------------------|-------0-------------|--0---------------------|
    -------3--1--1----1--1--|--3----1----1--------|-------3--3--1----1--1--|
    ------------------------|--4---------2--------|------------------------|
    ------------------------|---------------------|------------------------|
    ------------------------|---------------------|------------------------|
    ------------------------|---------------------|------------------------|
    
    
    
    -------0---------------|--0---------------------|-------0-------------|
    --3----0----1----------|-------3--1--1----1--1--|--0----1----1--------|
    --4---------2----2--0--|------------------------|--7---------2--------|
    -----------------------|------------------------|---------------------|
    -----------------------|------------------------|---------------------|
    -----------------------|------------------------|---------------------|
    
    
    
    ----------------------|--------------------|--0----0----0---------|
    --1----1----1----0----|--0-----------------|--1----1----1----3----|
    ----------------------|-------2------------|-----------------4----|
    ----------------------|--------------------|----------------------|
    ----------------------|--------------------|----------------------|
    ----------------------|--------------------|----------------------|
    
    
    
    ---------------------|----------------------|--------------------|
    --0----3----3--------|--1----1----1----0----|--0-----------------|
    --7----4----0--------|----------------------|-------2------------|
    ---------------------|----------------------|--------------------|
    ---------------------|----------------------|--------------------|
    ---------------------|----------------------|--------------------|
    
    
    
    ------------0---------|---------------------|-------------------------||
    --1----1---------1----|--3--3------------3--|--3--3--3--3--3------3---||
    ----------------------|---------------------|------------------------*||
    ----------------------|---------------------|------------------------*||
    ----------------------|---------------------|-------------------------||
    ----------------------|---------------------|-------------------------||
    
    
    
    ------------------|------------------|------------------|------------------|
    ------------------|------------------|------------------|------------------|
    ------------------|------------------|------------------|------------------|
    ------------------|------------------|------------------|------------------|
    ------------------|------------------|------------------|------------------|
    ------------------|------------------|------------------|------------------|
    
    
    
    ------------------|-------------------|-------0-------------|
    ------------------|----------------1--|--3----1----1--------|
    ------------------|-------------------|--4---------2--------|
    ------------------|-------------------|---------------------|
    ------------------|-------------------|---------------------|
    ------------------|-------------------|---------------------|
    
    
    
    ------------------------|-------0-------------|-------------------|
    --1----1--1--1----1--1--|--3----1----1--------|-------------------|
    ------------------------|--4---------2--------|----------------5--|
    ------------------------|---------------------|-------------------|
    ------------------------|---------------------|-------------------|
    ------------------------|---------------------|-------------------|
    
    
    
    --------------------|-----------8--------|--------------------|
    --5--------6--------|--8-----------------|--8--------6--------|
    --------------------|--------------------|--------------------|
    --------------------|--------------------|--------------------|
    --------------------|--------------------|--------------------|
    --------------------|--------------------|--------------------|
    
    
    
    ---------------------|--------------------|-------0-------------|
    --5------------------|--5--------6--------|--3----1----1--------|
    -----------5----5----|--------------------|--4---------2--------|
    ---------------------|--------------------|---------------------|
    ---------------------|--------------------|---------------------|
    ---------------------|--------------------|---------------------|
    
    
    
    ------------------------|---------------------|-----------8~---3----|
    --1----1--1--1----1--1--|--1----1----1--------|--8------------------|
    ------------------------|---------------------|---------------------|
    ------------------------|---------------------|---------------------|
    ------------------------|---------------------|---------------------|
    ------------------------|---------------------|---------------------|
    
    
    
    --8--------3--------|--8----------------||
    --------------------|-------------------||
    --------------------|-------------------||
    --------------------|-------------------||
    --------------------|-------------------||
    --------------------|-------------------||…
  • Chords:
    
    eb-|---------------------------|-0-------------------------|
    bb-|---------------------------|-0-------------------------|
    gb-|9-----6--------------------|-1--4--6-----2-------------|
    db-|9--9--6--6--7--------------|-2--4--6--6--2-------------|
    ab-|7--9--4--6--7--------------|-2--2--4--6--0-------------|
    eb-|---7-----4--5--------------|-0--------4----------------|
    
    
    Fig…
  • Dm      B                 F        C
    Do you know what's worth fighting for
    When it's not worth dying for?
    Does it take you breath away
             B                 C
    And you feel yourself suffocating?
    Does the pain weight…
  • E|--------------------------|
    B|-5--5---5-(5)-------5---5-|
    G|-9--9---9-(9)---9---9---9-|
    D|-9--9---9-(9)---9---9---9-|
    A|-7--7---7-(7)---7---7---7-|
    E|--------------------------|
    
    E|----------------------------|--------------------------|
    B|----------------------------|--------------------------|
    G|----------------------------|-2--2---2-(2)---2---2---2-|
    D|-6--6---6-(6)---6---6---6---|-2--2---2-(2)---2---2---2-|
    A|-6--6---6-(6)---6---6---6---|-0--0---0-(0)---0---0---0-|
    E|-4--4---4-(4)---4---4---4---|----------------5---------|
    
    E|---------------------------------|--------------------------|
    B|---------------------------------|-5--5---5-(5)-------5---5-|
    G|-2---2---2---2---2---2---2---2---|-9--9---9-(9)---9---9---9-|
    D|-2---2---2---2---2---2---2---2---|-9--9---9-(9)---9---9---9-|
    A|-0---0---0---0---0---0---0---0---|-7--7---7-(7)---7---7---7-|
    E|---------------------------------|--------------------------|
    
    E|----------------------------|--------------------------|
    B|----------------------------|--------------------------|
    G|----------------------------|-2--2---2-(2)---2---2---2-|
    D|-6--6---6-(6)---6---6---6---|-2--2---2-(2)---2---2---2-|
    A|-6--6---6-(6)---6---6---6---|-0--0---0-(0)---0---0---0-|
    E|-4--4---4-(4)---4---4---4---|----------------5---------|
    
    E|---------------------------------|--------------------------|
    B|---------------------------------|--------------------------|
    G|-2---2---2---2---2---2---2---2---|--------------------------|
    D|-2---2---2---2---2---2---2---2---|-2--2---2---2---2---2---2-|
    A|-0---0---0---0---0---0---0---0---|-2--2---2---2---2---2---2-|
    E|---------------------------------|-0--0---0---0---0---0---0-|
    
    E|---------------------------------|--------------------------|
    B|---------------------------------|-0--0---0---0---0---0---0-|
    G|---------------------------------|-4--4---4---4---4---4---4-|
    D|-2---2---2---2---2---2---2---2---|-4--4---4---4---4---4---4-|
    A|-2---2---2---2---2---2---2---2---|-2--2---2---2---2---2---2-|
    E|-0---0---0---0---0---0---0---0---|--------------------------|
    
    E|--------------------------|--------------------------|
    B|---0---0---0---0---0---0--|--------------------------|
    G|---4---4---4---4---4---4--|-2--2---2---2---2---2---2-|
    D|---4---4---4---4---4---4--|-2--2---2---2---2---2---2-|
    A|---2---2---2---2---2---2--|-0--0---0---0---0---0---0-|
    E|--------------------------|--------------------------|
    
    E|-------------------------------|--------------------------|
    B|-------------------------------|--------------------------|
    G|---2---2---2---2---2---2---2---|--------------------------|
    D|---2---2---2---2---2---2---2---|-2--2---2---2---2---2---2-|
    A|---0---0---0---0---0---0---0---|-2--2---2---2---2---2---2-|
    E|-------------------------------|-0--0---0---0---0---0---0-|
    
    E|----------------------------|--------------------------|
    B|----------------------------|--------------------------|
    G|---------------------2---2--|--------------------------|
    D|-2---2---2---2---2---2---2--|-2--2---2---2---2---2---2-|
    A|-2---2---2---2---2---0---0--|-2--2---2---2---2---2---2-|
    E|-0---0---0---0---0----------|-0--0---0---0---0---0---0-|
    
    E|---------------------------------|--------------------------|
    B|---------------------------------|-0--0---0---0---0---0---0-|
    G|---------------------------------|-4--4---4---4---4---4---4-|
    D|-2---2---2---2---2---2---2---2---|-4--4---4---4---4---4---4-|
    A|-2---2---2---2---2---2---2---2---|-2--2---2---2---2---2---2-|
    E|-0---0---0---0---0---0---0---0---|--------------------------|
    
    E|---------------------------------|---------------------|
    B|-0---0---0---0---0---0---0---0---|---------------------|
    G|-4---4---4---4---4---4---4---4---|-2--2--2---2---2---2-|
    D|-4---4---4---4---4---4---4---4---|-2--2--2---2---2---2-|
    A|-2---2---2---2---2---2---2---2---|-0--0--0---0---0---0-|
    E|---------------------------------|---------------------|
    
    E|---------------------------------|--------------------------|
    B|---------------------------------|--------------------------|
    G|-2---2---2---2---2---2---2---2---|----------------2-(2)-----|
    D|-2---2---2---2---2---2---2---2---|-2--2---2---2---2-(2)---2-|
    A|-0---0---0---0---0---0---0---0---|-2--2---2---2---0-(0)---2-|
    E|---------------------------------|-0--0---0---0-----------0-|
    
    E|-------------------------|---------------------|
    B|-------------------------|-0--0--0---0---0---0-|
    G|-------------------------|-4--4--4---4---4---4-|
    D|-(2)---2---2---2---2--2--|-4--4--4---4---4---4-|
    A|-(2)---2---2---2---2--2--|-2--2--2---2---2---2-|
    E|-(0)---0---0---0---0--0--|---------------------|
    
    E|-----------------------------------|--------------------------|
    B|-(0)---0---0---0-(0)-------0---0---|--------------------------|
    G|-(4)---4---4---4-(4)---4---4---4---|-2--2---2-(2)---2---2---2-|
    D|-(4)---4---4---4-(4)---4---4---4---|-2--2---2-(2)---2---2---2-|
    A|-(2)---2---2---2-(2)---2---2---2---|-0--0---0-(0)---0---0---0-|
    E|-----------------------------------|----------------5---------|
    
    E|---------------------------------|---------------------|
    B|---------------------------------|-0--0--0---0---0---0-|
    G|-2---2---2---2---2---2---2---2---|-4--4--4---4---4---4-|
    D|-2---2---2---2---2---2---2---2---|-4--4--4---4---4---4-|
    A|-0---0---0---0---0---0---0---0---|-2--2--2---2---2---2-|
    E|---------------------------------|---------------------|
    
    E|-----------------------------------|--------------------------|
    B|-(0)---0---0---0-(0)-------0---0---|--------------------------|
    G|-(4)---4---4---4-(4)---4---4---4---|-2--2---2-(2)---2---2---2-|
    D|-(4)---4---4---4-(4)---4---4---4---|-2--2---2-(2)---2---2---2-|
    A|-(2)---2---2---2-(2)---2---2---2---|-0--0---0-(0)---0---0---0-|
    E|-----------------------------------|----------------5---------|
    
    E|---------------------------------|--------------------------|
    B|---------------------------------|-5--5---5-(5)-------5---5-|
    G|-2---2---2---2---2---2---2---2---|-9--9---9-(9)---9---9---9-|
    D|-2---2---2---2---2---2---2---2---|-9--9---9-(9)---9---9---9-|
    A|-0---0---0---0---0---0---0---0---|-7--7---7-(7)---7---7---7-|
    E|---------------------------------|--------------------------|
    
    E|----------------------------|--------------------------|
    B|----------------------------|--------------------------|
    G|----------------------------|-2--2---2-(2)---2---2---2-|
    D|-6--6---6-(6)---6---6---6---|-2--2---2-(2)---2---2---2-|
    A|-6--6---6-(6)---6---6---6---|-0--0---0-(0)---0---0---0-|
    E|-4--4---4-(4)---4---4---4---|----------------5---------|
    
    E|---------------------------------|--------------------------|
    B|---------------------------------|-5--5---5-(5)-------5---5-|
    G|-2---2---2---2---2---2---2---2---|-9--9---9-(9)---9---9---9-|
    D|-2---2---2---2---2---2---2---2---|-9--9---9-(9)---9---9---9-|
    A|-0---0---0---0---0---0---0---0---|-7--7---7-(7)---7---7---7-|
    E|---------------------------------|--------------------------|
    
    E|----------------------------|--------------------------|
    B|----------------------------|--------------------------|
    G|----------------------------|-2--2---2-(2)---2---2---2-|
    D|-6--6---6-(6)---6---6---6---|-2--2---2-(2)---2---2---2-|
    A|-6--6---6-(6)---6---6---6---|-0--0---0-(0)---0---0---0-|
    E|-4--4---4-(4)---4---4---4---|----------------5---------|
    
    E|---------------------------------|--------------------------|
    B|---------------------------------|-5--5---5-(5)-------5---5-|
    G|-2---2---2---2---2---2---2---2---|-9--9---9-(9)---9---9---9-|
    D|-2---2---2---2---2---2---2---2---|-9--9---9-(9)---9---9---9-|
    A|-0---0---0---0---0---0---0---0---|-7--7---7-(7)---7---7---7-|
    E|---------------------------------|--------------------------|
    
    E|----------------------------|--------------------------|
    B|----------------------------|--------------------------|
    G|----------------------------|-2--2---2-(2)---2---2---2-|
    D|-6--6---6-(6)---6---6---6---|-2--2---2-(2)---2---2---2-|
    A|-6--6---6-(6)---6---6---6---|-0--0---0-(0)---0---0---0-|
    E|-4--4---4-(4)---4---4---4---|----------------5---------|
    
    E|---------------------------------|--------------------------|
    B|---------------------------------|-5--5---5-(5)-------5---5-|
    G|-2---2---2---2---2---2---2---2---|-9--9---9-(9)---9---9---9-|
    D|-2---2---2---2---2---2---2---2---|-9--9---9-(9)---9---9---9-|
    A|-0---0---0---0---0---0---0---0---|-7--7---7-(7)---7---7---7-|
    E|---------------------------------|--------------------------|
    
    E|----------------------------|--------------------------|
    B|----------------------------|--------------------------|
    G|----------------------------|-2--2---2-(2)---2---2---2-|
    D|-6--6---6-(6)---6---6---6---|-2--2---2-(2)---2---2---2-|
    A|-6--6---6-(6)---6---6---6---|-0--0---0-(0)---0---0---0-|
    E|-4--4---4-(4)---4---4---4---|----------------5---------|
    
    E|---------------------------------|--------------------------|
    B|---------------------------------|--------------------------|
    G|-2---2---2---2---2---2---2---2---|--------------------------|
    D|-2---2---2---2---2---2---2---2---|-2--2---2---2---2---2---2-|
    A|-0---0---0---0---0---0---0---0---|-2--2---2---2---2---2---2-|
    E|---------------------------------|-0--0---0---0---0---0---0-|
    
    E|---------------------------------|--------------------------|
    B|---------------------------------|-0--0---0---0---0---0---0-|
    G|---------------------------------|-4--4---4---4---4---4---4-|
    D|-2---2---2---2---2---2---2---2---|-4--4---4---4---4---4---4-|
    A|-2---2---2---2---2---2---2---2---|-2--2---2---2---2---2---2-|
    E|-0---0---0---0---0---0---0---0---|--------------------------|
    
    E|--------------------------|--------------------------|
    B|---0---0---0---0---0---0--|--------------------------|
    G|---4---4---4---4---4---4--|-2--2---2---2---2---2---2-|
    D|---4---4---4---4---4---4--|-2--2---2---2---2---2---2-|
    A|---2---2---2---2---2---2--|-0--0---0---0---0---0---0-|
    E|--------------------------|--------------------------|
    
    E|-------------------------------|--------------------------|
    B|-------------------------------|--------------------------|
    G|---2---2---2---2---2---2---2---|--------------------------|
    D|---2---2---2---2---2---2---2---|-2--2---2---2---2---2---2-|
    A|---0---0---0---0---0---0---0---|-2--2---2---2---2---2---2-|
    E|-------------------------------|-0--0---0---0---0---0---0-|
    
    E|----------------------------|--------------------------|
    B|----------------------------|--------------------------|
    G|---------------------2---2--|--------------------------|
    D|-2---2---2---2---2---2---2--|-2--2---2---2---2---2---2-|
    A|-2---2---2---2---2---0---0--|-2--2---2---2---2---2---2-|
    E|-0---0---0---0---0----------|-0--0---0---0---0---0---0-|
    
    E|---------------------------------|--------------------------|
    B|---------------------------------|-0--0---0---0---0---0---0-|
    G|---------------------------------|-4--4---4---4---4---4---4-|
    D|-2---2---2---2---2---2---2---2---|-4--4---4---4---4---4---4-|
    A|-2---2---2---2---2---2---2---2---|-2--2---2---2---2---2---2-|
    E|-0---0---0---0---0---0---0---0---|--------------------------|
    
    E|---------------------------------|---------------------|
    B|-0---0---0---0---0---0---0---0---|---------------------|
    G|-4---4---4---4---4---4---4---4---|-2--2--2---2---2---2-|
    D|-4---4---4---4---4---4---4---4---|-2--2--2---2---2---2-|
    A|-2---2---2---2---2---2---2---2---|-0--0--0---0---0---0-|
    E|---------------------------------|---------------------|
    
    E|---------------------------------|--------------------------|
    B|---------------------------------|--------------------------|
    G|-2---2---2---2---2---2---2---2---|----------------2-(2)-----|
    D|-2---2---2---2---2---2---2---2---|-2--2---2---2---2-(2)---2-|
    A|-0---0---0---0---0---0---0---0---|-2--2---2---2---0-(0)---2-|
    E|---------------------------------|-0--0---0---0-----------0-|
    
    E|-------------------------|---------------------|
    B|-------------------------|-0--0--0---0---0---0-|
    G|-------------------------|-4--4--4---4---4---4-|
    D|-(2)---2---2---2---2--2--|-4--4--4---4---4---4-|
    A|-(2)---2---2---2---2--2--|-2--2--2---2---2---2-|
    E|-(0)---0---0---0---0--0--|---------------------|
    
    E|-----------------------------------|--------------------------|
    B|-(0)---0---0---0-(0)-------0---0---|--------------------------|
    G|-(4)---4---4---4-(4)---4---4---4---|-2--2---2-(2)---2---2---2-|
    D|-(4)---4---4---4-(4)---4---4---4---|-2--2---2-(2)---2---2---2-|
    A|-(2)---2---2---2-(2)---2---2---2---|-0--0---0-(0)---0---0---0-|
    E|-----------------------------------|----------------5---------|
    
    E|---------------------------------|---------------------|
    B|---------------------------------|-0--0--0---0---0---0-|
    G|-2---2---2---2---2---2---2---2---|-4--4--4---4---4---4-|
    D|-2---2---2---2---2---2---2---2---|-4--4--4---4---4---4-|
    A|-0---0---0---0---0---0---0---0---|-2--2--2---2---2---2-|
    E|---------------------------------|---------------------|
    
    E|-----------------------------------|--------------------------|
    B|-(0)---0---0---0-(0)-------0---0---|--------------------------|
    G|-(4)---4---4---4-(4)---4---4---4---|-2--2---2-(2)---2---2---2-|
    D|-(4)---4---4---4-(4)---4---4---4---|-2--2---2-(2)---2---2---2-|
    A|-(2)---2---2---2-(2)---2---2---2---|-0--0---0-(0)---0---0---0-|
    E|-----------------------------------|----------------5---------|
    
    E|---------------------------------|--------------------------|
    B|---------------------------------|-5--5---5-(5)-------5---5-|
    G|-2---2---2---2---2---2---2---2---|-9--9---9-(9)---9---9---9-|
    D|-2---2---2---2---2---2---2---2---|-9--9---9-(9)---9---9---9-|
    A|-0---0---0---0---0---0---0---0---|-7--7---7-(7)---7---7---7-|
    E|---------------------------------|--------------------------|
    
    E|----------------------------|--------------------------|
    B|----------------------------|--------------------------|
    G|----------------------------|-2--2---2-(2)---2---2---2-|
    D|-6--6---6-(6)---6---6---6---|-2--2---2-(2)---2---2---2-|
    A|-6--6---6-(6)---6---6---6---|-0--0---0-(0)---0---0---0-|
    E|-4--4---4-(4)---4---4---4---|----------------5---------|
    
    E|---------------------------------|--------------------------|
    B|---------------------------------|-5--5---5-(5)-------5---5-|
    G|-2---2---2---2---2---2---2---2---|-9--9---9-(9)---9---9---9-|
    D|-2---2---2---2---2---2---2---2---|-9--9---9-(9)---9---9---9-|
    A|-0---0---0---0---0---0---0---0---|-7--7---7-(7)---7---7---7-|
    E|---------------------------------|--------------------------|
    
    E|----------------------------|--------------------------|
    B|----------------------------|--------------------------|
    G|----------------------------|-2--2---2-(2)---2---2---2-|
    D|-6--6---6-(6)---6---6---6---|-2--2---2-(2)---2---2---2-|
    A|-6--6---6-(6)---6---6---6---|-0--0---0-(0)---0---0---0-|
    E|-4--4---4-(4)---4---4---4---|----------------5---------|
    
    E|---------------------------------|--------------------------|
    B|---------------------------------|-5--5---5-(5)-------5---5-|
    G|-2---2---2---2---2---2---2---2---|-9--9---9-(9)---9---9---9-|
    D|-2---2---2---2---2---2---2---2---|-9--9---9-(9)---9---9---9-|
    A|-0---0---0---0---0---0---0---0---|-7--7---7-(7)---7---7---7-|
    E|---------------------------------|--------------------------|
    
    E|----------------------------|--------------------------|
    B|----------------------------|--------------------------|
    G|----------------------------|-2--2---2-(2)---2---2---2-|
    D|-6--6---6-(6)---6---6---6---|-2--2---2-(2)---2---2---2-|
    A|-6--6---6-(6)---6---6---6---|-0--0---0-(0)---0---0---0-|
    E|-4--4---4-(4)---4---4---4---|----------------5---------|
    
    E|---------------------------------|--------------------------|
    B|---------------------------------|-5--5---5-(5)-------5---5-|
    G|-2---2---2---2---2---2---2---2---|-9--9---9-(9)---9---9---9-|
    D|-2---2---2---2---2---2---2---2---|-9--9---9-(9)---9---9---9-|
    A|-0---0---0---0---0---0---0---0---|-7--7---7-(7)---7---7---7-|
    E|---------------------------------|--------------------------|
    
    E|----------------------------|--------------------------|
    B|----------------------------|--------------------------|
    G|----------------------------|-2--2---2-(2)---2---2---2-|
    D|-6--6---6-(6)---6---6---6---|-2--2---2-(2)---2---2---2-|
    A|-6--6---6-(6)---6---6---6---|-0--0---0-(0)---0---0---0-|
    E|-4--4---4-(4)---4---4---4---|----------------5---------|
    
    E|---------------------------------|--------------------------|
    B|---------------------------------|-5--5---5-(5)-------5---5-|
    G|-2---2---2---2---2---2---2---2---|-9--9---9-(9)---9---9---9-|
    D|-2---2---2---2---2---2---2---2---|-9--9---9-(9)---9---9---9-|
    A|-0---0---0---0---0---0---0---0---|-7--7---7-(7)---7---7---7-|
    E|---------------------------------|--------------------------|
    
    E|----------------------------|--------------------------|
    B|----------------------------|--------------------------|
    G|----------------------------|-2--2---2-(2)---2---2---2-|
    D|-6--6---6-(6)---6---6---6---|-2--2---2-(2)---2---2---2-|
    A|-6--6---6-(6)---6---6---6---|-0--0---0-(0)---0---0---0-|
    E|-4--4---4-(4)---4---4---4---|----------------5---------|
    
    E|---------------------------------|--------------------------|
    B|---------------------------------|-5--5---5-(5)-------5---5-|
    G|-2---2---2---2---2---2---2---2---|-9--9---9-(9)---9---9---9-|
    D|-2---2---2---2---2---2---2---2---|-9--9---9-(9)---9---9---9-|
    A|-0---0---0---0---0---0---0---0---|-7--7---7-(7)---7---7---7-|
    E|---------------------------------|--------------------------|
    
    E|----------------------------|--------------------------|
    B|----------------------------|--------------------------|
    G|----------------------------|-2--2---2-(2)---2---2---2-|
    D|-6--6---6-(6)---6---6---6---|-2--2---2-(2)---2---2---2-|
    A|-6--6---6-(6)---6---6---6---|-0--0---0-(0)---0---0---0-|
    E|-4--4---4-(4)---4---4---4---|----------------5---------|
    
    E|---------------------------------|--------------------------|
    B|---------------------------------|-5--5---5-(5)-------5---5-|
    G|-2---2---2---2---2---2---2---2---|-9--9---9-(9)---9---9---9-|
    D|-2---2---2---2---2---2---2---2---|-9--9---9-(9)---9---9---9-|
    A|-0---0---0---0---0---0---0---0---|-7--7---7-(7)---7---7---7-|
    E|---------------------------------|--------------------------|
    
    E|----------------------------|--------------------------|
    B|----------------------------|--------------------------|
    G|----------------------------|-2--2---2-(2)---2---2---2-|
    D|-6--6---6-(6)---6---6---6---|-2--2---2-(2)---2---2---2-|
    A|-6--6---6-(6)---6---6---6---|-0--0---0-(0)---0---0---0-|
    E|-4--4---4-(4)---4---4---4---|----------------5---------|
    
    E|---------------------------------|--------------------------|
    B|---------------------------------|-5--5---5-(5)-------5---5-|
    G|-2---2---2---2---2---2---2---2---|-9--9---9-(9)---9---9---9-|
    D|-2---2---2---2---2---2---2---2---|-9--9---9-(9)---9---9---9-|
    A|-0---0---0---0---0---0---0---0---|-7--7---7-(7)---7---7---7-|
    E|---------------------------------|--------------------------|
    
    E|----------------------------|--------------------------|
    B|----------------------------|--------------------------|
    G|----------------------------|-2--2---2-(2)---2---2---2-|
    D|-6--6---6-(6)---6---6---6---|-2--2---2-(2)---2---2---2-|
    A|-6--6---6-(6)---6---6---6---|-0--0---0-(0)---0---0---0-|
    E|-4--4---4-(4)---4---4---4---|----------------5---------|
    
    E|---------------------------------|---------------------|
    B|---------------------------------|-0--0--0---0---0-----|
    G|-2---2---2---2---2---2---2---2---|-4--4--4---4---4---2-|
    D|-2---2---2---2---2---2---2---2---|-4--4--4---4---4---2-|
    A|-0---0---0---0---0---0---0---0---|-2--2--2---2---2---0-|
    E|---------------------------------|---------------------|
    
    E|---------------------|---------------------------------|
    B|-0--0--0---0---0-----|---------------------------------|
    G|-4--4--4---4---4---2-|-(2)---2---2---2---2---2---2---2-|
    D|-4--4--4---4---4---2-|-(2)---2---2---2---2---2---2---2-|
    A|-2--2--2---2---2---0-|-(0)---0---0---0---0---0---0---0-|
    E|---------------------|---------------------------------|
    
    E|---------------------------------|--------------------------|
    B|---------------------------------|-5--5---5-(5)-------5---5-|
    G|-2---2---2---2---2---2---2---2---|-9--9---9-(9)---9---9---9-|
    D|-2---2---2---2---2---2---2---2---|-9--9---9-(9)---9---9---9-|
    A|-0---0---0---0---0---0---0---0---|-7--7---7-(7)---7---7---7-|
    E|---------------------------------|--------------------------|
    
    E|----------------------------|--------------------------|
    B|----------------------------|--------------------------|
    G|----------------------------|-2--2---2-(2)---2---2---2-|
    D|-6--6---6-(6)---6---6---6---|-2--2---2-(2)---2---2---2-|
    A|-6--6---6-(6)---6---6---6---|-0--0---0-(0)---0---0---0-|
    E|-4--4---4-(4)---4---4---4---|----------------5---------|
    
    E|---------------------------------|--------------------------|
    B|---------------------------------|-5--5---5-(5)-------5---5-|
    G|-2---2---2---2---2---2---2---2---|-9--9---9-(9)---9---9---9-|
    D|-2---2---2---2---2---2---2---2---|-9--9---9-(9)---9---9---9-|
    A|-0---0---0---0---0---0---0---0---|-7--7---7-(7)---7---7---7-|
    E|---------------------------------|--------------------------|
    
    E|----------------------------|--------------------------|
    B|----------------------------|--------------------------|
    G|----------------------------|-2--2---2-(2)---2---2---2-|
    D|-6--6---6-(6)---6---6---6---|-2--2---2-(2)---2---2---2-|
    A|-6--6---6-(6)---6---6---6---|-0--0---0-(0)---0---0---0-|
    E|-4--4---4-(4)---4---4---4---|----------------5---------|
    
    E|---------------------------------|--------------------------|
    B|---------------------------------|-5--5---5-(5)-------5---5-|
    G|-2---2---2---2---2---2---2---2---|-9--9---9-(9)---9---9---9-|
    D|-2---2---2---2---2---2---2---2---|-9--9---9-(9)---9---9---9-|
    A|-0---0---0---0---0---0---0---0---|-7--7---7-(7)---7---7---7-|
    E|---------------------------------|--------------------------|
    
    E|----------------------------|--------------------------|
    B|----------------------------|--------------------------|
    G|----------------------------|-2--2---2-(2)---2---2---2-|
    D|-6--6---6-(6)---6---6---6---|-2--2---2-(2)---2---2---2-|
    A|-6--6---6-(6)---6---6---6---|-0--0---0-(0)---0---0---0-|
    E|-4--4---4-(4)---4---4---4---|----------------5---------|
    
    E|---------------------------------|--------------------------|
    B|---------------------------------|-5--5---5-(5)-------5---5-|
    G|-2---2---2---2---2---2---2---2---|-9--9---9-(9)---9---9---9-|
    D|-2---2---2---2---2---2---2---2---|-9--9---9-(9)---9---9---9-|
    A|-0---0---0---0---0---0---0---0---|-7--7---7-(7)---7---7---7-|
    E|---------------------------------|--------------------------|
    
    E|----------------------------|--------------------------|
    B|----------------------------|--------------------------|
    G|----------------------------|-2--2---2-(2)---2---2---2-|
    D|-6--6---6-(6)---6---6---6---|-2--2---2-(2)---2---2---2-|
    A|-6--6---6-(6)---6---6---6---|-0--0---0-(0)---0---0---0-|
    E|-4--4---4-(4)---4---4---4---|----------------5---------|
    
    E|---------------------------------|---------------------|-----------------*-|
    B|---------------------------------|-0--0--0---0---0-----|-----------------*-|
    G|-2---2---2---2---2---2---2---2---|-4--4--4---4---4---2-|-(2)-------------*-|
    D|-2---2---2---2---2---2---2---2---|-4--4--4---4---4---2-|-(2)-------------*-|
    A|-0---0---0---0---0---0---0---0---|-2--2--2---2---2---0-|-(0)-------------*-|
    E|---------------------------------|---------------------|-----------------*-|…
  • intro
    
    |---------------------------------------|
    |---------------------------------------|
    |-9-9-9-9-9-9-9-9-9-9-9-9-9-9-9-9-9-9-9-|
    |-9-9-9-9-9-9-9-9-9-9-9-9-9-9-9-9-9-9-9-|
    |-7-7-7-7-7-7-7-7-7-7-7-7-7-7-7-7-7-7-7-|
    |---------------------------------------|
    
    verse
    
    |---------------------------------------------------------
    |---------------------------------------------------------
    |-------------7-7-7-7-7-7-7-7-------------7-7-7-7-7-7-7-7-
    |-7-7-7-7-7-7-7-7-7-7-7-7-7-7-7-7-7-7-7-7-7-7-7-7-7-7-7-7-
    |-7-7-7-7-7-7-5-5-5-5-5-5-5-5-7-7-7-7-7-7-5-5-5-5-5-5-5-5-
    |-5-5-5-5-5-5-----------------5-5-5-5-5-5-----------------
    
    -------------------------------------------|
    -------------------------------------------|
    -------------7-7-7-7-7-7-------------------|
    -4-4-4-4-4-4-7-7-7-7-7-7-2-2-2-2-2-2-2-2-2-|
    -4-4-4-4-4-4-5-5-5-5-5-5-2-2-2-2-2-2-2-2-2-|
    -2-2-2-2-2-2-------------0-0-0-0-0-0-0-0-0-|
    
    chorus
    
    |---------------------------------------------------------
    |---------------------------------------------------------
    |-7-7-7-7-7-7-----------------9-9-9-9-9-9-----------------
    |-7-7-7-7-7-7-7-7-7-7-7-7-7-7-9-9-9-9-9-9-7-7-7-7-7-7-7-7-
    |-5-5-5-5-5-5-7-7-7-7-7-7-7-7-7-7-7-7-7-7-7-7-7-7-7-7-7-7-
    |-------------5-5-5-5-5-5-5-5-------------5-5-5-5-5-5-5-5-
    
    ---------------------------------------------------|
    ---------------------------------------------------|
    -7-7-7-7-7-7-----------------9-9-9-9-9-9-9-9-9-9-9-|
    -7-7-7-7-7-7-7-7-7-7-7-7-7-7-9-9-9-9-9-9-9-9-9-9-9-|
    -5-5-5-5-5-5-7-7-7-7-7-7-7-7-7-7-7-7-7-7-7-7-7-7-7-|
    -------------5-5-5-5-5-5-5-5-----------------------|
    
    bridge
    
    |---------------------------------------------------------
    |---------------------------------------------------------
    |---------------------------------------------------------
    |-7-7-7-7-7-7-4-4-4-4-4-4-4-4-7-7-7-7-7-7-4-4-4-4-4-4-4-4-
    |-7-7-7-7-7-7-4-4-4-4-4-4-4-4-7-7-7-7-7-7-4-4-4-4-4-4-4-4-
    |-5-5-5-5-5-5-2-2-2-2-2-2-2-2-5-5-5-5-5-5-2-2-2-2-2-2-2-2-
    
    ---------------------------------------------------------|
    ---------------------------------------------------------|
    -7-7-7-7-7-7-7-7-7-7-7-7-7-7-9-9-9-9-9-9-9-9-9-9-9-9-9-9-|
    -7-7-7-7-7-7-7-7-7-7-7-7-7-7-9-9-9-9-9-9-9-9-9-9-9-9-9-9-|
    -5-5-5-5-5-5-5-5-5-5-5-5-5-5-7-7-7-7-7-7-7-7-7-7-7-7-7-7-|
    ---------------------------------------------------------|
    
    lyrics
    
    stranded...…
  • Intro
    E|------|
    B|------|
    G|8-6---|
    D|8-6-6-|
    A|6-4-6-|
    E|----4-|
    
    A gunshot rings...
    E|------|
    B|------|
    G|8-6-8-|
    D|8-6-8-|
    A|6-4-6-|
    E|------|
    
    Another urchin snaps...
    E|--------|
    B|--------|
    G|8-6-----|
    D|8-6-4-8-|
    A|6-4-4-8-|
    E|----2-6-|
    These…
  • intro
    |-------------------------------------------------------------
    |-------------------------------------------------------------
    |---9-9-9-9-9---------------9-9-9-9-9---------------9-9-9-9-9-
    |-7-9-9-9-9-9-7-9-9-9-9-9-7-9-9-9-9-9-7-9-9-9-9-9-7-9-9-9-9-9-
    |-7-7-7-7-7-7-7-9-9-9-9-9-7-7-7-7-7-7-7-9-9-9-9-9-7-7-7-7-7-7-
    |-5-----------5-7-7-7-7-7-5-----------5-7-7-7-7-7-5-----------
    
    ------------------------------------------------|
    ------------------------------------------------|
    ---------------9-9-9-9-9----------------------9-|
    -7-9-9-9-9-9-7-9-9-9-9-9-7-9-9-9-9-9-7-2----7-9-|
    -7-9-9-9-9-9-7-7-7-7-7-7-7-9-9-9-9-9-7-2----7-7-|
    -5-7-7-7-7-7-5-----------5-7-7-7-7-7-5-0----5---|
    
    verse
    |-----------------------------------------------------|
    |-----------------------------------------------------|
    |-9-9-9-9-9-9-9-9-9-9-9-9-9-----------------9-9-9-9-9-|
    |-9-9-9-9-9-9-9-9-9-9-9-9-9-9-9-9-9-9-9-9-9-9-9-9-9-9-|
    |-7-7-7-7-7-7-7-7-7-7-7-7-7-9-9-9-9-9-9-9-9-7-7-7-7-7-|
    |---------------------------7-7-7-7-7-7-7-7-----------|
    
    pre…
  • Intro:
       Fm         C#         Ab         Eb
    e|-------------------------------------------|
    B|--9---9---x-------------13--13--x----------|
    G|--10--10--x--10--10--x--13--13--x--12--12--| > 4X
    D|-------------11--11--x-------------13--13--|
    A|-------------------------------------------|
    E|-------------------------------------------|
    
    F…
  • 1st verse
    Staring out of my Window Watching the cars go rolling by
    ------------------------------------------------------------------------------
    ------------------------------------------------------------------------------
    -------------5-------------------------2----------------------------
    -5-------------------------2----------------------------
    -3-------------------------0----------------------------
    My…
  • Verse1:
    A     D    B         D
    I?ve been waiting a long time
     A    D   B         D
    For this moment to come
    A    D
    I?m destined
     B              D
    For anything at all
    
    Downtown lights will be shining
    On me like a new diamond
    Ring…
  • Nice, crunchy overdriven guitar
    
    B5 G#5 E5 B5
    e|-------------------------------------------------|
    B|-------------------------------------------------|
    G|-------------------------------------------------|
    D|-9-9-9-9---6-6-6-6---2-2-2-2---9-9-9-9-----------|…
  • INTRO/VERS
    E|----------------------------------------------------|
    B|----------------------------------------------------|
    G|-----------------------------------7--9--7--9--7--9-|
    D|-----0-0-7-0-0-5-0-0-7-0-0-5-0-0-7-7--9--7--9--7--9-|
    A|-0-0-------------------------------5--7--5--7--5--7-|
    E|----------------------------------------------------|
    
    CHORUS
    E|-----------------------------------------------|
    B|-----------------------------------------------|
    G|-2-2-2-2-2-4-4-4-4-4-4-4-9-9-9-7-7-7-7-7-7-2-2-|
    D|-2-2-2-2-2-4-4-4-4-4-4-4-9-9-9-7-7-7-7-7-7-2-2-|
    A|-0-0-0-0-0-2-2-2-2-2-2-2-7-7-7-5-5-5-5-5-5-0-0-|
    E|-----------------------------------------------|
    
    E|-------------------------------------------------|
    B|-------------------------------------------------|
    G|-2-2-2-4-4-4-4-4-4-4-9-9-9-7-7-7-7-7-7-2-2-2-2-2-|
    D|-2-2-2-4-4-4-4-4-4-4-9-9-9-7-7-7-7-7-7-2-2-2-2-2-|
    A|-0-0-0-2-2-2-2-2-2-2-7-7-7-5-5-5-5-5-5-0-0-0-0-0-|
    E|-------------------------------------------------|
    
    --------------------------------------------------------|
    --------------------------------------------------------|
    4-4-4-4-4-4-4-9-9-9-7-7-7-7-7-7-2-2-2-2-2-4-4-4-4-4-4-4-|
    4-4-4-4-4-4-4-9-9-9-7-7-7-7-7-7-2-2-2-2-2-4-4-4-4-4-4-4-|
    2-2-2-2-2-2-2-7-7-7-5-5-5-5-5-5-0-0-0-0-0-2-2-2-2-2-2-2-|
    --------------------------------------------------------|
    
    E|----------------------------------------|
    B|----------------------------------------|
    G|-----------------------------------9--7-|
    D|-----0-0-7-0-0-5-0-0-7-0-0-5-0-0-7-9--7-|
    A|-0-0-------------------------------7--5-|
    E|----------------------------------------|
    
    E|--------------|
    B|--------------|
    G|9--7--9--7--9-|
    D|9--7--9--7--9-|
    A|7--5--7--5--7-|
    E|--------------|
    
    SOLO…
  • Intro
    e|-2-|
    B|-0-|
    G|-4-|
    D|-4-|Gradually increase volume
    A|---|
    E|-2-|
    
    
    Bridge
    e|-----------------|-----------------|
    B|-----------------|-----------------|
    G|-4---4---4-4-4---|-----------------|
    D|-4---4---4-4-4-7-|---6-2---2-2-2-2-|
    A|-2---2---2-2-2-7-|---6-2---2-2-2-2-|
    E|---------------5-|---4-0---0-0-0-0-|
    
    
    Fill…
  • Intro: B A F#
    
    
    Verse:
    B B B
    I've got a knack for fucking everything up.
    A E
    My temper flies and I get myself all wound up.
    B B B
    My fuse is short and my blood pressure is high.
    A E
    I lose control and I get myself…
  • INTRO
    e|-----------------|-------------------|---------------|-----------------|
    B|-------2---------|--------2----------|-------2-------|-----------------|
    G|-----------2-----|------------2------|----------2----|-----------------|
    D|-----------------|-------------------|---------------|-4-4-4-4-4-4-4-4-|
    A|-----------------|-------------------|---------------|-4-4-4-4-4-4-4-4-|
    E|-5---------------|-4/5-4-------------|-2/4-3------3/2|-2-2-2-2-2-2-2-2-|
    
    e|-----------------|-----------------|-----------------|-----------------|
    B|-----------------|-----------------|-----------------|-----------------|
    G|-4-4-4-4-4-4-4-4-|-7-7-7-7-7-7-7-7-|-----------------|---------7---7---|
    D|-4-4-4-4-4-4-4-4-|-7-7-7-7-7-7-7-7-|-7-7-7-7-7-7-7-7-|-7-7-7-7-7---7---|
    A|-2-2-2-2-2-2-2-2-|-5-5-5-5-5-5-5-5-|-7-7-7-7-7-7-7-7-|-7-7-7-7-5---5---|
    E|-----------------|-----------------|-5-5-5-5-5-5-5-5-|-5-5-5-5---------|
    
    VERSE
    e|-----------------|-----------------|-----------------|-----------------|
    B|-----------------|-----------------|-----------------|-----------------|
    G|-----------------|-7-7-7-7-7-7-7-7-|-------------7---|-----------------|
    D|-7-7-7-7-7-7-7-7-|-7-7-7-7-7-7-7-7-|-7-7-7-7-7-7-7---|-7-7-7-7-7-7-7-7-|
    A|-7-7-7-7-7-7-7-7-|-5-5-5-5-5-5-5-5-|-7-7-7-7-7-7-5---|-7-7-7-7-7-7-7-7-|
    E|-5-5-5-5-5-5-5-5-|-----------------|-5-5-5-5-5-5-----|-5-5-5-5-5-5-5-5-|
    
    e|-----------------|-----------------|-----------------|-----------------|
    B|-----------------|-----------------|-----------------|-----------------|
    G|-----------------|-7-7-7-7-7-7-7-7-|-----------------|-----------------|
    D|-7-7-7-7-7-7-7-7-|-7-7-7-7-7-7-7-7-|-2-2-2-2-2-2-2-2-|-2-2-2-2-5---5---|
    A|-7-7-7-7-7-7-7-7-|-5-5-5-5-5-5-5-5-|-2-2-2-2-2-2-2-2-|-2-2-2-2-5---5---|
    E|-5-5-5-5-5-5-5-5-|-----------------|-0-0-0-0-0-0-0-0-|-0-0-0-0-3---3---|
    
    e|-----------------|-----------------|-----------------|-----------------|
    B|-----------------|-----------------|-----------------|-----------------|
    G|-----------------|-7-7-7-7-7-7-7-7-|-------------7---|-----------------|
    D|-7-7-7-7-7-7-7-7-|-7-7-7-7-7-7-7-7-|-7-7-7-7-7-7-7---|-7-7-7-7-7-7-7-7-|
    A|-7-7-7-7-7-7-7-7-|-5-5-5-5-5-5-5-5-|-7-7-7-7-7-7-5---|-7-7-7-7-7-7-7-7-|
    E|-5-5-5-5-5-5-5-5-|-----------------|-5-5-5-5-5-5-----|-5-5-5-5-5-5-5-5-|
    
    e|-----------------|-----------------|-----------------|-----------------|
    B|-----------------|-----------------|-----------------|-----------------|
    G|-----------------|-7-7-7-7-7-7-7-7-|-----------------|-----------------|
    D|-7-7-7-7-7-7-7-7-|-7-7-7-7-7-7-7-7-|-2-2-2-2-2-2-2-2-|-2-2-2-2-2-2-2-2-|
    A|-7-7-7-7-7-7-7-7-|-5-5-5-5-5-5-5-5-|-2-2-2-2-2-2-2-2-|-2-2-2-2-2-2-2-2-|
    E|-5-5-5-5-5-5-5-5-|-----------------|-0-0-0-0-0-0-0-0-|-0-0-0-0-0-0-0-0-|
    
    chorus
    e|-----------------|-----------------|-----------------|-----------------|
    B|-----------------|-----------------|-----------------|-----------------|
    G|-----------------|-7-7-7-7-7-7-7-7-|-------------7---|-----------------|
    D|-7-7-7-7-7-7-7-7-|-7-7-7-7-7-7-7-7-|-7-7-7-7-7-7-7---|-7-7-7-7-7-7-7-7-|
    A|-7-7-7-7-7-7-7-7-|-5-5-5-5-5-5-5-5-|-7-7-7-7-7-7-5---|-7-7-7-7-7-7-7-7-|
    E|-5-5-5-5-5-5-5-5-|-----------------|-5-5-5-5-5-5-----|-5-5-5-5-5-5-5-5-|
    
    e|-----------------|-----------------|-----------------|----------------|
    B|-----------------|-----------------|-----------------|----------------|
    G|-----------------|-4-4-4-4-4-4-4-4-|-----------------|----------------|
    D|-4-4-4-4-4-4-4-4-|-4-4-4-4-4-4-4-4-|-2-2-2-2-2-2-2-2-|-2-2-2-2-5--5---|
    A|-4-4-4-4-4-4-4-4-|-2-2-2-2-2-2-2-2-|-2-2-2-2-2-2-2-2-|-2-2-2-2-5--5---|
    E|-2-2-2-2-2-2-2-2-|-----------------|-0-0-0-0-0-0-0-0-|-0-0-0-0-3--3---|
    
    e|-----------------|-----------------|-----------------|-----------------|
    B|-----------------|-----------------|-----------------|-----------------|
    G|-----------------|-7-7-7-7-7-7-7-7-|-----------------|-----------------|
    D|-7-7-7-7-7-7-7-7-|-7-7-7-7-7-7-7-7-|-7-7-7-7-7-7-7-7-|-7-7-7-7-7-7-7-7-|
    A|-7-7-7-7-7-7-7-7-|-5-5-5-5-5-5-5-5-|-7-7-7-7-7-7-7-7-|-7-7-7-7-7-7-7-7-|
    E|-5-5-5-5-5-5-5-5-|-----------------|-5-5-5-5-5-5-5-5-|-5-5-5-5-5-5-5-5-|
    
    e|-----------------|-----------------|-----------------|-----------------|
    B|-----------------|-----------------|-----------------|-----------------|
    G|-----------------|-4-4-4-4-4-4-4-4-|-----------------|-----------------|
    D|-4-4-4-4-4-4-4-4-|-4-4-4-4-4-4-4-4-|-2-2-2-2-2-2-2-2-|-2-2-2-2-2-------|
    A|-4-4-4-4-4-4-4-4-|-2-2-2-2-2-2-2-2-|-2-2-2-2-2-2-2-2-|-2-2-2-2-2-------|
    E|-2-2-2-2-2-2-2-2-|-----------------|-0-0-0-0-0-0-0-0-|-0-0-0-0-0-------|
    
    OUTRO
    e|-----------------|-----------------|-----------------|-----------------|
    B|-------2---------|--------2--------|-------2---------|-----------------|
    G|-----------2-----|------------2----|----------2------|-----------------|
    D|-----------------|-----------------|-----------------|-4-4-4-4-4-4-4-4-|
    A|-----------------|-----------------|-----------------|-4-4-4-4-4-4-4-4-|
    E|-5---------------|-4/5-4-----------|-2/4-3-------3/2-|-2-2-2-2-2-2-2-2-|
    
    e|-----------------|-----------------|-----------------|-----------------|
    B|-----------------|-----------------|-----------------|-----------------|
    G|-4-4-4-4-4-4-4-4-|-7-7-7-7-7-7-7-7-|-----------------|-----------------|
    D|-4-4-4-4-4-4-4-4-|-7-7-7-7-7-7-7-7-|-7-7-7-7-7-7-7-7-|-7-7-7-7---------|
    A|-2-2-2-2-2-2-2-2-|-5-5-5-5-5-5-5-5-|-7-7-7-7-7-7-7-7-|-7-7-7-7---------|
    E|-----------------|-----------------|-5-5-5-5-5-5-5-5-|-5-5-5-5---------|
    
    Intro
    Verse
    Intro
    Verse
    Intro
    Verse
    Intro
    Chorus
    Outro…
  • Chords:
    
    B5 E F# A
    |--x----0---0----x---
    |--x----0---0----2---
    |--4----1---3----2---
    |--4----2---4----2---
    |--2----2---4----0---
    |--x----0---2----x---
    
    
    Intro:
    
    B5 E B5 E B5 E A F#
    
    
    Verse:
    
    B5 E B5 E B5 E
    I saw my friend…
  • Intro: Play this twice for intro
    D|9--9--7--7--6--6--5-5-7-8
    A|9--9--7--7--6--6--5-5-7-8
    D|9--9--7--7--6--6--5-5-7-8
    
    Play that over and over for the verses.
    
    Verse 1:
    
    Hey mister, where are you headed?
    Are you in a hurry?
    I…
  • Chords:
    
    Gmodal   :320033
    C9       :032033
    Dsus4    :000233
    Em7      :022033
    
    
    Tab 1 & Intro
    
    Verse: (play each line twice, then go to chorus)
    
       G                              C9             Dsus4
       |-------3--------------3--------------3------------3--------|…
  • |---------------------|
    |---------------------|
    |-----------4-4-------| 4x
    |-4-4-2-2-2-4-4-------|
    |-4-4-2-2-2-2-2-------|
    |-2-2-0-0-0-----------|
    
    |-------------------------------------------|
    |-------------------------------------------|
    |-------------------------------------------|…
  • C#5 (x,4,6,6,x,x)
      Bb5 (x,1,3,3,x,x)
      F#5 (2,4,4,x,x,x)
      G#5 (4,6,6,x,x,x)
       F5 (1,3,3,x,x,x)
    C#5/C (x,3,6,6,x,x)
      Eb5 (x,6,8,8,x,x)
     G#5* (x,11,13,13,x,x)
      F5* (x,8,10,10,x,x)
       A5 (x,5,7,7,x,x)
       C5 (x,3,5,5,x,x)…
  • Intro (PM this riff once, then PM the chords)
    Asus2 F# G Dsus2
    e|--------------------------------------------0------------------|
    B|-------0--------------------------------------3----------------|
    G|-------2-2-2-------4-3-3-------5-4-4--2-2-2-----2--------------|
    D|-2-2-2---2-2-------4-4-4-------5-5-5--0-0-0--------------------|
    A|-0-0-0-------4-4-4-------5-5-5---------------------------------|
    E|-------------2-2-2-------3-3-3---------------------------------|
    
    Verse…
  • INTRO:
    E - G - E - D - E
    (do that a bunch of times, then:)
    D - A - E
              Raise your hands now to testify
    D - A - E
             Your confession will be crucified
    D - A - E
             You're a sacrificial suicide
    D…
  • Intro: E
    
    Verse:
    E
    Waiting in a room
    All dressed up and bound and gagged
    C
    Up to a chair it?s so unfair
    E
    I won?t dare move for the pain she puts me through
    C                                Em
    Is what i need, so make it…
  • Key: C then Ab then C# then D
    
    Tuning: Standard EADGBe
    
    Chords used:
    C -    x32010
    G -    320003
    F -    133211
    Cm -   x35543
    C# -   x46664
    G# -   466544
    F# -   244322
    Ab/C - x365xx
    Ebm -  x68876
    G -    320033
    Bbm…
  • A D B G F E
    e|-----------------------------
    b|-----------------------------
    g|--------7--------------------
    d|--7-----7----9-----5--3----2------
    a|--7-----5----9-----5--3----2------
    e|--5----------7-----3--1----0-------
    -Intro:…
  • Intro :
    E|--------------------------------------------------------|
    B|--------------------------------------------------------|
    G|--6-6--6------------------------------------------------|
    D|--7-7--7--7-----5-5---7-7--7----------------7-----------|
    A|--7-7--7--7-----5-5---5-5--7--7--7--7--5-5--5-----------|
    E|--5-5-----5-----3-3--------5--5--5--5--3-3----0---------|
    
    E|--------------------------------------------------------|
    B|--------------------------------------------------------|
    G|--------------------------------------------------------|
    D|--------------------7----------------------7------------|
    A|--7-7---7--7---5-5--5-----7-7---7-7---5-5--5------------|
    E|--5-5---5--5---3-3----0---5-5---5-5---3-3-----0---------|
    
    1st…
  • INTRO RIFF
    
    G5 C D G5 C D
    
    E|-----------------|-----------------|-----------------|-----------------|
    
    B|-----------------|-----------------|-----------------|-----------------|
    
    G|*--------5-5-5-7-|---7-7-7---7-7-7-|---------5-5-5-7-|---7-7-7---7-7-7*|
    
    D|*5---5---5-5-5-7-|---7-7-7---7-7-7-|-5---5---5-5-5-7-|---7-7-7---7-7-7*|
    
    A|-5---5---3-3-3-5-|---5-5-5---5-5-5-|-5---5---3-3-3-5-|---5-5-5---5-5-5-|
    
    E|-3---3-----------|-----------------|-3---3-----------|-----------------|
    
    2x
    
    VERSE…
  • Intro: G
    
     G         D/F#
    Summer has come and passed
     Em7              G/D
    The innocent can never last
     C          Cm            G
    Wake me up when September ends
    
    Like my father's come to pass
    Seven years has gone so fast
    Wake…
  • Вступление: A F# Hm E
    
     A                    F#m
    Take away the sensation inside 
     Hm                    E
    Bittersweet migraine in my head 
    It's like a throbbing toothache of the mind 
    I can't take this feeling anymore…
  • 1,2,3,4!
    Intro: Bm
    
    
    Bm
    Well, I've got a fever
    
    A non-believer
    
    I'm in a state of grace
    
    For I am the Caesar
                        F#
    I'm gonna seize the day
    
    Well, call of the banshee hey hey
    
    Hey hey hey…
  • A|---4---4---4---4---2---2---2---2---2---2---2---2---0---0---0---0-|
    E|-2---2---2---2---0---0---0---0---2---2---2---2---0---0---0---0---|
    
    And during the second verse, he plays some weird riff too, it's somethin
    like -->…
  • VERSE (repeat as needed)
    
    E--------------------------0--------------------------0--
    B--------------------0-0---0--------------------0-0---0--
    G--4--4--4---------1-----1-1--4--4--4---------1-----1-1--
    D--4--4--4-2-2---2---------2--4--4--4-2-2---2---------2--
    A--2--2--2-0-2-------------2--2--2--2-0-2-------------2--
    E------------0-------------0--------------0-----------0--
    
    CHORUS…
  • Intro:
     E , C# / B , A
     E , C# / B , A
     
     Verse:
     B (PM)                          B
     I'm not part of your elite, I'm just alright
     A                  /  B
     Class structure, Having colors
     A                  /  B
     Bleeding…
  • Intro
    E|-----------------|-------------------|
    B|-7-7-7-8-8-8-8-8-|10-10-10-8-8-8-8-8-|
    G|-7-7-7-7-7-7-7-7-|-7--7--7-7-7-7-7-7-|
    D|-----------------|-------------------|
    A|-----------------|-------------------|
    E|-----------------|-------------------|
    
    E|-----------------|------------------------|
    B|-7-7-7-8-8-8-8-8-|10-10-10-10-10-10-10-10-|
    G|-7-7-7-7-7-7-7-7-|-7--7--7--7--7--7--7--7-|
    D|-----------------|------------------------|
    A|-----------------|------------------------|
    E|-----------------|------------------------|
    
    E|------------------------|------------------------|
    B|10-10-10-10-10-10-10-10-|10-10-10-10-10-10-10-10-|
    G|-7--7--7--7--7--7--7--7-|-7--7--7--7--7--7--7--7-|
    D|------------------------|------------------------|
    A|------------------------|------------------------|
    E|------------------------|------------------------|
    
    Verse…
  • e--------
    B--------
    G--------
    D--8-----
    A--8-----
    E--6-----
    
    
    e-----------------------------------
    B-----------------------------------
    G-----------------------------------
    D-8-8-8-8-8-8-8-8-8-8-8-8-8-8-8-8---
    A-8-8-8-8-8-8-8-8-8-8-8-8-8-8-8-8---
    E-6-6-6-6-6-6-6-6-6-6-6-6-6-6-6-6---
    *…
  • Intro: A#
    
    Verse:
    A#            D      G
    He?s a victim of his own time
             D#       D        F
    In his "vintage suit" and tie
    He?s a casualty dressed to the teeth
    In the latest genocide
    
    The new seasons come and go
    At…
  • Intro:
    Q=190
    G#5 C#5 F#5 C#5G#5F#5 G#5 C#5 F#5 C#5G#5
    4/4
    (Guitar 1)
    E E E Q E E E +E E Q Q Q E E E Q E E E +E E Q Q Q
    e||-----------------|----------------|----------------|-----------------||
    B||o----------------|----------------|----------------|----------------o||
    G||--------6--6-6---|-------6--------|-------6--6-6---|-------6---------||
    D||--6-6-6-6--6-6-4-|-(4)-4-6--6--4--|-6-6-6-6--6-6-4-|-(4)-4-6--6------||
    A||o-6-6-6-4--4-4-4-|-(4)-4-4--6--4--|-6-6-6-4--4-4-4-|-(4)-4-4--6-----o||
    E||--4-4-4--------2-|-(2)-2----4--2--|-4-4-4--------2-|-(2)-2----4------||
    
    
    Verse:
    G#5…
  • Intro:
    
    E5(2) Eb5
    
    Verse:
    
    E5                 A
    Where have all the bastards gone?
    
        F#5        A             E5 
    The underbelly stacks up ten high.
    
        Ab               C#          Ab             C#…
  • Intro
    
    E-------------------------------------------------------------------------|
    B-------------------------------------------------------------------------|
    G-5-5-5-5-5-5-5-5-5-2-2-2-2-2-2-2-2-2-5-5-5-5-5-5-5-5-5-2-2-2-2-2-2-2-2-2-|
    D-5-5-5-5-5-5-5-5-5-2-2-2-2-2-2-2-2-2-5-5-5-5-5-5-5-5-5-2-2-2-2-2-2-2-2-2-|
    A-0-0-0-0-0-0-0-0-0-0-0-0-0-0-0-0-0-0-0-0-0-0-0-0-0-0-0-0-0-0-0-0-0-0-0-0-|
    E-------------------------------------------------------------------------|
    
    Verse
    
    E-----------------------------------------------------------------------------|
    B-----------------------------------------------------------------------------|
    G-5-5-5-5-5-5-5-5-2-2-2-2-2-2-2-2-5-5-5-5-5-5-5-5-7-7-7-7-7-7-7-7-7-7-7-7-7-7-|
    D-5-5-5-5-5-5-5-5-2-2-2-2-2-2-2-2-5-5-5-5-5-5-5-5-7-7-7-7-7-7-7-7-7-7-7-7-7-7-|
    A-0-0-0-0-0-0-0-0-0-0-0-0-0-0-0-0-0-0-0-0-0-0-0-0-0-0-0-0-0-0-0-0-0-0-0-0-0-0-|
    E-----------------------------------------------------------------------------|
    
    Come…
  • Main riff
    D7
    |------------------------------------------
    |-------7--x------7--x------7--x------7--x-
    |---5---5--x--5---5--x--5---5--x--5---5--x-
    |---7---7--x--7---7--x--7---7--x--7---7--x-
    |---5---5-----5---5-----5---5-----5---5----
    |------------------------------------------
    
    C7…
  • (INTRO: A G-G D-D A-A all barre chords)
    
    (verse 1)
    A G
    Now I rest my head from
    D A
    Such an endless dreary time.
    A G
    A time of hope and happiness
    D A
    That had you on my mind.
    A G
    Those days are gone and now it seems
    D A
    As…
  • D                          Hm
    Thought I ran into you down on the street
    Then it turned out to only be a dream
    
    Припев:
    G       D             F#                Hm    A 
    I made a point to burn all of the photographs
    She…
  • CHORUS
    
    B           E      B
    Do you know the enemy?
    
    B             E       B
      Do you know your enemy?
    
          B          E      B       F#
    Well, gotta know the enemy, Wah Ay                 x3
    
    
    
    VERSE 
    
    B…
  • Tuning: Standard EADGBe
    
    Chords used:
    B    x24442
    F#   244322
    E    022100
    Em   022000
    B7   x21202
    
    
    Intro: B   x2
    
    
    Verse 1:
                 B
    She puts her makeup on
    Like graffiti on the
                 E
    walls…
  • Verse 1:
    |----------------------------------------------|
    |----------------------------------------------|
    |------------------------5-5-5-5-5-------------|
    |-5-5-5-5-5--3-3-3-3-3---5-5-5-5-5--5-5-5-5-5--| x4
    |-5-5-5-5-5--3-3-3-3-3---3-3-3-3-3--5-5-5-5-5--|
    |-3-3-3-3-3--1-1-1-1-1--------------3-3-3-3-3--|
    
    Chorus…
  • Intro
    e|---------|---------|
    B|---------|---------|
    G|-7-------|-------5-|
    D|-7-------|-------5-|
    A|-5-------|-------3-|
    E|---------|---------|
    
    
    Verse
    e|-2---------------|-3---------------|-5---------------|-3---------------|
    B|-------3---------|-------3---------|-------3---------|-------3---------|
    G|-----------------|-----------------|-----------------|-----------------|
    D|-------------0---|-------------0---|-------------0---|-------------0---|
    A|-----------------|-----------------|-----------------|-----------------|
    E|-----------------|-----------------|-----------------|-----------------|
    
    
    Fill…
  • Intro:
    1--------------------------|-------------------------|
    2--------------------------|-------------------------|
    3------------------9-9-9-9-|-----------------9-9-9-9-|
    4--9-9-9-9-9-6-6-6-9-9-9-9-|-9-9-9-9-9-6-6-6-9-9-9-9-|
    5--9-9-9-9-9-6-6-6-7-7-7-7-|-9-9-9-9-9-6-6-6-7-7-7-7-|
    6--7-7-7-7-7-4-4-4---------|-7-7-7-7-7-4-4-4---------|
    
    Verse:
    1-----------------------------------------------------------------|
    2-----------------------------------------------------------------|
    3---4---4---4---4-------------------------------------------------|
    4---4---4---4---4---4---4---4---4---6---6---6---6---2---2---2---2-|
    5---2---2---2---2---4---4---4---4---6---6---6---6---2---2---2---2-|
    6-------------------2---2---2---2---4---4---4---4---0---0---0---0-|
    boxed…
  • Intro:
    Eb|-----------------------------------------------------------------
    Bb|-----------------------------------------------------------------
    Gb|-X-7-7-7-7-7------------------------------------------------
    Db|-X-7-7-7-7-7--7-7-7-7-7--5--4-4--5-5-5--4--5--7---
    Ab|-X-5-5-5-5-5--7-7-7-7-7--5--4-4--5-5-5--4--5--7---
    Eb|--------------5-5-5-5-5--3--2-2--3-3-3--2--3--5---…
  • Intro
    E B5 D A5 E B5 D
    G|-----------------|-----------------|-----------------|-----------------|
    D|-----------------|-----------------|-----------------|-----------------|
    A|-7-7-------------|-5-5-------------|-7-7-------------|-5---------------|
    E|-------7---7-7---|-------5---5-5---|-------7---7-7---|-----------------|
    |…
  • Intro: A E D A (repeat)
    
    [Part 1: The death of St. Jimmy]
    
    A   E          D                 A
    My heart is beating from me
    A E                D   A
    I am standing all alone
    A        E    D   A
    Please call me only…
  • Intro:
    |----------------------------------|
    |----------------------------------|
    |-R-13/12/11-10/9/8-7/6/5-4/3/2----|
    |----------------------------------|
    
    
    Verse:
    |----------------------------------|
    |----------------------------------|…
  • A  D  G
    Куплет:
    A                   D                 G
    This is a public service anouncement, this is only a test.
    A           D         G
    Emergency evacutation protest.
    A               D          G
    May impair your ability…
  • Intro:
    
    B(5) B B5/A B/A Bsus4/A
    |---------------|-----------------|------------------|
    |---------------|-----4-------4---|-----4-----5-5--5-|
    |-4-4-4---4-----|-4-4-4-4-4-4-4-4-|-4-4-4-4-4-4-4--4-|
    |-4-4-4---4-----|-4-4-4-4-4-4-4-4-|-4-4-4-4-4-4-4--4-|
    |-2-2-2---2-----|-2-2-2-2-2-2-2-2-|-0-0-0-0-0-0-2--0-|
    |---------------|-----------------|------------------|
    
    E…
  • Verse (x2) (PM until C5)
       G5   D5   G5   C5   G5   E5   C5   D5
    e|---------------------------------------------------------------|
    B|---------------------------------------------------------------|
    G|------7----5----5--------------5----7--------------------------|
    D|-5----7----5----5----5----2----5----7--------------------------|
    A|-5----5----5----3----5----2----3----5--------------------------|
    E|-3---------3---------3----0------------------------------------|
    
    Pre-Chorus…
  • intro riff:
    E--------------------------------------------------------------------
    B--------------------------------------------------------------------
    G-------------------------7-7-7-7-7-7-7-7-7-7--9-9-------------------
    D--7-7-7-7-7-7-7-7--11-9--7-7-7-7-7-7-7-7-7-7--9-9-------------------
    A--7-7-7-7-7-7-7-7--11-9--5-5-5-5-5-5-5-5-5-5--7-7-------------------
    E--5-5-5-5-5-5-5-5--9--7---------------------------------------------
    
    verse:
    E--------------------------------------------------------------------
    B--------------------------------------------------------------------
    G-----------------------------------------------7---7-7-7-7-7-7-7----
    D--7---7-7-7-7-7-7-7--11--11-11-11-11-11-11-11--7---7-7-7-7-7-7-7----
    A--7---7-7-7-7-7-7-7--11--11-11-11-11-11-11-11--5---5-5-5-5-5-5-5----
    E--5---5-5-5-5-5-5-5--9---9--9--9--9--9--9--9------------------------
    ++++PM+++++++…
  • Intro
    E|--3--0-|
    B|--3--1-|
    G|--0--0-|
    D|--0--2-|
    A|--2--3-|
    E|--3--0-|
    
    As I step to the edge...
    E|-3--0--3--2-|
    B|-3--1--3--3-|
    G|-0--0--0--2-|
    D|-0--2--0--0-|
    A|-2--3--2--0-|
    E|-3--0--3----|
    
    When you lost the hope...
    E|--0--3--2--3--0--3--0--3-|
    B|--0--3--3--3--0--3--1--3-|
    G|--0--0--2--0--0--0--0--0-|
    D|--2--0--0--0--2--0--2--0-|
    A|--2--2--0--2--2--2--3--2-|
    E|--0--3-----3--0--3--0--3-|
    
    A…
  • 5 G5 A5 G5 A5 | E5 G5 D5 A5 E5 G5 D5
    
    E|-----------------------------|---------------------------------------------|
    B|-----------------------------|---------------------------------------------|
    G|-----------------------------|----9-----------7------------9-------------7-|
    D|--4----5-----4------5-----4--|----9-----5-----7------4-----9------5------7-|
    A|--4----5-----4------3-----2--|----7-----5-----5------4-----7------5------5-|
    E|--2----3-----2------3-----2--|----------3------------2------------3--------|
    
    "IVE…
  • A        A6                 F#m\\A           
    I text a postcard, sent to you
                 A7        
    Did it go through?
    D       Dm             A
    Sending all my love to you
    You are the moonlight of my life every night
    Giving…
  • Tuning: Standard EADGBe
    
    Chords used:
    B -   x24442
    D -   xx0232
    E -   022100
    A -   x02220
    F# -  244322
    G#m - 466444
    G -   320033
    
    
    Intro: B--D-E--A--F# x6
    B--A--G#m--G
    
    
    Verse 1:
                     B    D…
  • * - muting
    
    Riff1
           D5    C5    D5    C5    D5    C5     H5
    E {---555---333---555---333---555---333---2222222-|
    H {---555---333---555---333---555---333---2222222-|
    G {---777---555---777---555---777---555---4444444-|
    D…
  • Intro: A D A (strum on A string whole time)
    
    (only strum on A)                            D A
    St. Jimmy's comin' down across the alleyway
    (only strum on A)                           D A
    Upon the boulevard like a zipgun…
  • Intro:
                C G  D
     |%%%%|%%%%|////|////|
     
     Part A:
       G C  G    C G  D
     :|////|////|////|////|:
     
     Part B:
       C G  C G  C G  D
     :|////|////|////|////|:
     
     Part C:
      C G  C G  A    D   
     |////|////|////|////|/%%/|…
  • D|-----5-----5-----|-----5---7p5-----|-----4-----4-----|-----2-----2-----|
    A|---5-----5---5---|---5---------5---|---5-----5---5---|---5-----5---5---|
    E|-7-----7-------7-|-6-----6-------6-|-5-----5-------5-|-4-----4-------4-|
    
    D|-----------5p2---------------------|
    A|-----4-7-------4h5-4-4-2h4p2-0-----|
    E|-4/5-----5---------------------0-2-|
    
    (Play…
  • INTRO (Cleanly arpeggio.  Listen to the CD.)
     B     F#     B     E     B     F#      B
     
     
     VERSE:
     
     B        F#
     Juliet's tryin
     B                            E
     To find out what she wants, but she don't know
     B…
  • Gtr. I
    Verse:
                  E5                D5              Cb5
    e-------------------------------------------------------|
    b-------------------------------------------------------|
    g---99-9-99-9-99-9-99-9-77-7-77-7-77-7-77-7-66-6-66-6---|
    D---99-9-99-9-99-9-99-9-77-7-77-7-77-7-77-7-66-6-66-6---|
    A---77-7-77-7-77-7-77-7-55-5-55-5-55-5-55-5-44-4-44-4---|
    E-------------------------------------------------------|
    pm....…
  • Verse 1 w/ VERSE
    E5             H5           A5           E5
    Another sentimental argument, and bitter love.
    A5               E5         A5                    H5
    Fucked without a kiss again and dragged it through the mud.
    Yelling…
  • Regular tuning (e,A,D,G,B,E)
    
    Intro
    eADGBE
    000220 (STRUM FROM HIGH TO LOW)
    
    
    VERSE FIRST PART
    e--------------------------]
    A--------------------------]
    D--------------------------]
    G--------------------------]
    B-------22---111-0---00----]
    E-00-33----3-------3----32-]
    
    VERSE…
  • Intro
    G:|--------|--------|--------|--------|--------|--------|--------|--------|
    D:|33333333|--------|33333333|--------|33333333|--------|33333333|--------|
    A:|--------|11113333|--------|310-----|--------|11113333|--------|310-----|
    E:|--------|--------|--------|---1----|--------|--------|--------|---1----|
    
    Verse
    G:|--------|--------|--------|--------|--------|--------|
    D:|33333333|----3333|33333333|----3333|33333333|----3333|
    A:|--------|1111----|--------|3335----|--------|3335----|
    E:|--------|--------|--------|--------|--------|--------|
    
    G:|--------|--------|--------|--------|--------|--------|
    D:|33333333|----3333|33333333|----3333|33333333|----3333|
    A:|--------|1111----|--------|3335----|--------|3335----|
    E:|--------|--------|--------|--------|--------|--------|
    
    Chorus
    G:|--------|--------|--------|--------|
    D:|--003300|--003300|--------|--------|
    A:|11------|11------|--003300|--003300|
    E:|--------|--------|11------|11------|
    
    G:|--------|--------|--------|--------|--------|--------|
    D:|--003300|--003300|33333333|----3333|33333333|--------|
    A:|11------|11------|--------|1111----|--------|310-----|
    E:|--------|--------|--------|--------|--------|---1----|
    
    Guitar…
  • Chords: (You should probably use the powerchords, it is easier that way)
     String#	6 54 3 21
                 EADGBe
     
     E     	022100 or  X79980
     A     	X02220 or  57760X
     B    	XX4442 or  79980X
     
     Verse:
     
     E			    A
     I wanna…
  • *CHORDS:
    
    A5 D5 E5 F#5 e5
    E|-----------------------------------|
    B|-----------------------------------|
    G|-----------7---------------------9-|
    D|----7------7------2-------4------9-|
    A|----7------5------2-------4------7-|
    E|----5-------------0-------2--------|
    
    *INTRO:…
  • Verse part:
    1--------------------------------------------------------------
    2--------------------------------------------------------------
    3------------5-5-5-5-5-----------5-5-5-5-5-----------5-5-5-5-5-
    4--5-5-5-5-5-5-5-5-5-5-5-5-5-5-5-5-5-5-5-5-5-5-5-5-5-5-5-5-5-5-
    5--5-5-5-5-5-3-3-3-3-3-5-5-5-5-5-3-3-3-3-3-5-5-5-5-5-3-3-3-3-3-
    6--3-3-3-3-3-----------3-3-3-3-3-----------3-3-3-3-3-----------
    
    1---------------------|------------------------------------------
    2---------------------|------------------------------------------
    3-7-7-7-7-7-7-7-7-7-7-|------------5-5-5-5-5-----------5-5-5-5-5-
    4-7-7-7-7-7-7-7-7-7-7-|--5-5-5-5-5-5-5-5-5-5-5-5-5-5-5-5-5-5-5-5-
    5-5-5-5-5-5-5-5-5-5-5-|--5-5-5-5-5-3-3-3-3-3-5-5-5-5-5-3-3-3-3-3-
    6---------------------|--3-3-3-3-3-----------3-3-3-3-3-----------
    
    1-----------------------------------------|
    2-----------------------------------------|
    3-----------5-5-5-5-5-7-7-7-7-7-7-7-7-7-7-|
    4-5-5-5-5-5-5-5-5-5-5-7-7-7-7-7-7-7-7-7-7-|
    5-5-5-5-5-5-3-3-3-3-3-5-5-5-5-5-5-5-5-5-5-|
    6-3-3-3-3-3-------------------------------|
    
    Chorus…
  • Tuning: Drop B
    
    Chords used: Drop B only
    Bm - 000xxx
    G -  888xxx
    C -  111xxx
    D -  333xxx
    Em - 555xxx
    A -  10-10-10-x-x-x
    F -  666xxx
    
    
    Chords used: for Standard EADGBe
    Bm - x24432
    G -  320033
    C -  x32010
    D…
  • intro
    
    E|-----------------------------------------------------------------------------|
    B|-----------------------------------------------------------------------------|
    G|-5-5-4-4-2-2-2-2-2-2-5-5-4-4-2-2-2-2-2-2-5-5-4-4-2-2-2-2-2-2-7-7-7-7-7-7-7-7-|
    D|-5-5-4-4-2-2-2-2-2-2-5-5-4-4-2-2-2-2-2-2-5-5-4-4-2-2-2-2-2-2-7-7-7-7-7-7-7-7-|
    A|-3-3-2-2-0-0-0-0-0-0-3-3-2-2-0-0-0-0-0-0-3-3-2-2-0-0-0-0-0-0-5-5-5-5-5-5-5-5-|
    E|-----------------------------------------------------------------------------|
    
    pre…
  • Intro(Lead guitar)-
    E------------------|
    B----------------7-|
    G------4-6-4---4---|
    D--3/4b------4-----|
    A------------------|
    E------------------|
    
    Verse 1-
    E------------------|
    B----------------7-|
    G------4-6-4---4---|
    D----4-------4-----|
    A------------------|
    E------------------|
    Play…
  • VERSE:
    G                          D 
       Words get trapped in my mind,
                   Em                              C
    Sorry I don't take the time to feel the way I do.
               G                           D
    'Cause…
  • Intro
    
    F#
    Dreaming
              C#/F
    I am only dreaming
    C#/E
    Of another place and time
    B                 Bm/D
    Where my family's from
    
    F#
    Singing
                    C#/F
    I can hear them singing
    C#/E
    When the rain…
  • INTRO:
    
    E|----------------------------------------------------------6--8~-4---6­~-|
    B|-6-5--5-5-5-5-5-5-6-5-6-5-3-3-3-3-3-3-4-3-4-3--6--8--4--6--------------|
    G|-5-5-------------------------------------------------------------------|
    D|-----------------------------------------------------------------------|
    A|-----------------------------------------------------------------------|
    E|-----------------------------------------------------------------------|…
  • Tuning: Standard EADGBe
    
    Chords used:
    C# - x46664
    G# - 466544
    F# - 244322
    Eb - x68886
    
    
    Intro: C#--G#-- x4
    
    Guitar 2:
    e|-11-----11-----11-----11-----11-------|
    B|----9------9------9------9------9---9-|
    G|------8------8------8------8------8---|
    D|--------------------------------------|…
  • Theres a slide at the beginning that you fingerpick
    e|--------------------------------------------------------|
    B|--------------------------------------------------------|
    G|--------------------------------------------------------|
    D|--------------------------------------------------------|
    A|--------------------------------------------------------|
    E|----12--------slide--to-----1--------------------------|
    
    Main…
  • Chords Used:
    
    A:		B:		C:		G:
    e-----		e-----		e-----		e-----
    G-----		G-----		G-----		B-----
    B-----		B-----		B--5--		G-----
    D--7--		D--9--		D--5--		D--5--
    A--7--		A--9--		A--3--		A--5--
    E--5--		E--7--		E-----		E--3--
    
    
    D:		E:		C…
  • Panic Song by Green Day
    
    G|--------------------------------------------------------------
    D|--------------------------------------------------------------
    A|-----------------1-1-1-1--------------------------------------
    E|-3-3-3-3-1-1-1-1---------3-3-3-3-3-3-3-3-3-1-1-1-1-1-1-1-1-1-
    
    G|----------------------------------------------------------------
    D|-----------------------------------------1-1-1-1-1---------------
    A|---------1-1-1-1-1-1---------1-1-1-1-1-1-----------1-1-1-1-1-3---
    E|-1-1-1-1-------------1-1-1-1-----------------------------------1-
    
    G|----------------------------------------------------------------------
    D|----------------------------------------------------------------------
    A|-1-1-1-1-----------------1-1-1-1--------------------------------------
    E|---------3-3-3-3-1-1-1-1---------3-3-3-3-3-3-3-3-3-1-1-1-1-1-1-1-1-1--
    
    G|-----------------------------------------------------------------
    D|-----------------------------------------1-1-1-1-1---------------
    A|---------1-1-1-1-1-1---------1-1-1-1-1-1-----------1-1-1-1-1-3---
    E|-1-1-1-1-------------1-1-1-1-----------------------------------1-
    
    G|----------------…
  • Intro/Chorus
    guitar 1
    |----------------------------------|
    |----------------------------------|
    |4-44-4444-88-6/99-99-9999-9-11----|
    |4-44-4444-xx-x-xx-xx-xxxx-9-11----|
    |2-22-2222-66-4/77-77-7777-7-9-----|
    |----------------------------------|
    
    guitar…
  • Bb                               G
    He hit the ground running at the speed of light
    Bb                               G
    The star was brightly shining like a neon light
    Eb       Bb          F  Eb       Bb          F
    It's…
  • ----------------|-------------------------------------------------------------
    ----------------|-------------------------------------------------------------
    --4-------------|----4xx4-x4-4-x4-4-------------------------------------------
    --4---------6---|----4xx4-x4-4-x4-4-6xx6-x6-6-x6-6----------------------------
    --2---------6---|----2xx2-x2-2-x2-2-6xx6-x6-6-x6-6----------------------------
    ------------4---|-------------------4xx4-x4-4-x4-4----------------------------
    Intro…
  • intro/verse
    
      c                em            am                 F                           G
    --------------------------11111--------333333333----|
    ---11------------11111----11111---------------------|
    ---xx------------22222----22222---------------------|
    ---22----22------22222----33333---------------------|
    3--33--2-22---0-----------33333--------222222222----|
    ------------------------1-11111------3-333333333----|
    
    ----------------------------11111--------333333333----|
    ---11--------------11111----11111---------------------|
    ---xx--------------22222----22222---------------------|
    ---22------22------22222----33333---------------------|
    3--33----2-22---0-----------33333--------222222222----|
    --------------------------1-11111------3-333333333----|…
  • verse
    
    |-----------------------------------------------------------------
    |-----------------------------------------------------------------
    |-4-4-4-4-4-4-4-4-4-4-4-4-4-4-4-4---------------------------------
    |-4-4-4-4-4-4-4-4-4-4-4-4-4-4-4-4-6-6-6-6-6-6-6-6-6-6-6-6-6-6-6-6-
    |-2-2-2-2-2-2-2-2-2-2-2-2-2-2-2-2-6-6-6-6-6-6-6-6-6-6-6-6-6-6-6-6-
    |---------------------------------4-4-4-4-4-4-4-4-4-4-4-4-4-4-4-4-
    
    -----------------------------------------------------------------|
    -----------------------------------------------------------------|
    -6-6-6-6-6-6-6-6-6-6-6-6-6-6-6-6---------------------------------|
    -6-6-6-6-6-6-6-6-6-6-6-6-6-6-6-6-4-4-4-4-4-4-4-4-4-4-4-4-4-4-4-4-|
    -4-4-4-4-4-4-4-4-4-4-4-4-4-4-4-4-4-4-4-4-4-4-4-4-4-4-4-4-4-4-4-4-|
    ---------------------------------2-2-2-2-2-2-2-2-2-2-2-2-2-2-2-2-|
    
    chorus
    
    |-----------------------------------------------------------------|
    |-----------------------------------------------------------------|
    |---------------------------------4-4-4-4-4-4-4-4-4-4-4-4-4-4-4-4-|
    |-2-2-2-2-2-2-2-2-5-5-5-5-5-5-5-5-4-4-4-4-4-4-4-4-4-4-4-4-4-4-4-4-|
    |-2-2-2-2-2-2-2-2-5-5-5-5-5-5-5-5-2-2-2-2-2-2-2-2-2-2-2-2-2-2-2-2-|
    |-0-0-0-0-0-0-0-0-3-3-3-3-3-3-3-3---------------------------------|
    
    |----------------------------------------------
    |----------------------------------------------
    |---------4-4-4-4-4-4-4------------------------
    |-2-2-x-x-4-4-4-4-4-4-4--2-2-x-x-6-6-6-6-6-6-6-
    |-2-2-x-x-2-2-2-2-2-2-2--2-2-x-x-6-6-6-6-6-6-6-
    |-0-0-x-x----------------0-0-x-x-4-4-4-4-4-4-4-
    
    -----------------------------------------------------|
    -----------------------------------------------------|
    -----------------------------------------------------|
    -5-5-5-5-5-5-5-5-5-5-5-5-5-4-4-4-4-4-4-4-4-4-4-4-4-4-|
    -5-5-5-5-5-5-5-5-5-5-5-5-5-4-4-4-4-4-4-4-4-4-4-4-4-4-|
    -3-3-3-3-3-3-3-3-3-3-3-3-3-2-2-2-2-2-2-2-2-2-2-2-2-2-|
    
    post…
  • Intro
    A D5/A
    |-----------------|-----------------|-----------------|---------------|
    |-----------------|-----------------|-----------------|---------------|
    |-----------------|-----------------|-----------------|---2-2--2--2---|
    |-2-2-2-0-0-0-0-0-|-2-2-2-0-0-0-0-0-|-2-2-2-0-0-0-0-0-|-2-2-2--2--2-0-|
    |-0-0-0-0-0-0-0-0-|-0-0-0-0-0-0-0-0-|-0-0-0-0-0-0-0-0-|-0-0-0--0--0-0-|
    |-----------------|-----------------|-----------------|---------------|
    
    Verse
    A…
  • E|-----------------------------------------------------------------------------|
    B|-----------------------------------------------------------------------------|
    G|-----------------------------------------------------------------------------|
    D|-----------------------------------------------------------------------------|
    A|-4-4-4-4-4-4-4-4-4-4--4-4--4-4-4-4--4-4--(X2)--------------------------------|
    E|----------------------------------------------4-4-4-4-4-4-4--2-2-2-2-2-2-2-2-|
    
    pre…
  • VERSE
    
    E|-----------------|-----------------|-----------------|-----------------|
    B|-----------------|-----------------|-----------------|-----------------|
    G|-----------------|-----------------|-----------------|-----------------|
    D|-4-4-4-3-3-3-4-4-|-4-3-3-3-4-4-3-3-|-4-4-4-3-3-3-4-4-|-4-3-3-3-4-4-3-3-|
    A|-----------------|-----------------|-----------------|-----------------|
    E|-----------------|-----------------|-----------------|-----------------|
    PM-------------------------------------------------------------------|
    
    
    E|-----------------|-----------------|-----------------|-----------------|
    B|-----------------|-----------------|-----------------|-----------------|
    G|-----------------|-----------------|-----------------|---------6---6---|
    D|-4-4-4-3-3-3-4-4-|-4-3-3-3-4-4-3-3-|-4-4-4-3-3-3-4-4-|-4-3-3-3-6---6---|
    A|-----------------|-----------------|-----------------|---------4---4---|
    E|-----------------|-----------------|-----------------|-----------------|
    PM-----------------------------------------------------------|
    
    
    BRIDGE
    
    E|-----------------|-----------------|
    B|-----------------|-----------------|
    G|-----------------|-----------------|
    D|-6-6-6-6-6-6-6-6-|-----------------|
    A|-4-4-4-4-4-4-4-4-|-4-4-4-4-4-4-4-4-|
    E|-----------------|-2-2-2-2-2-2-2-2-|
    PM-------------------------------|
    
    
    CHORUS
    
    E|-----------------|-----------------|-----------------|-----------------|
    B|-----------------|-----------------|-----------------|-----------------|
    G|-----------------|-4-4-4-4-4-4-4-4-|-----------------|-4-4-4-4-4-4-4-4-|
    D|-4-4-4-4-4-4-4-4-|-4-4-4-4-4-4-4-4-|-4-4-4-4-4-4-4-4-|-4-4-4-4-4-4-4-4-|
    A|-4-4-4-4-4-4-4-4-|-2-2-2-2-2-2-2-2-|-4-4-4-4-4-4-4-4-|-2-2-2-2-2-2-2-2-|
    E|-2-2-2-2-2-2-2-2-|-----------------|-2-2-2-2-2-2-2-2-|-----------------|
    
    
    
    E|-----------------|-----------------|-----------------|-----------------|
    B|-----------------|-----------------|-----------------|-----------------|
    G|-----------------|-6-6-6-6-6-6-6-6-|-----------------|-4-4-----6-6-----|
    D|-4-4-4-4-4-4-4-4-|-6-6-6-6-6-6-6-6-|-4-4-4-4-4-4-4-4-|-4-4-----6-6-----|
    A|-4-4-4-4-4-4-4-4-|-4-4-4-4-4-4-4-4-|-4-4-4-4-4-4-4-4-|-2-2-----4-4-----|
    E|-2-2-2-2-2-2-2-2-|-----------------|-2-2-2-2-2-2-2-2-|-----------------|
    
    
    SOLO
    
    E|-2-2-2-1-1-1-2-2-|-2-1-1-1-2-2-1-1-|-2-2-2-1-1-1-2-2-|-2-1-1-1-2-2-1-1-|
    B|-2-2-2-2-2-2-2-2-|-2-2-2-2-2-2-2-2-|-2-2-2-2-2-2-2-2-|-2-2-2-2-2-2-2-2-|
    G|-----------------|-----------------|-----------------|-----------------|
    D|-----------------|-----------------|-----------------|-----------------|
    A|-----------------|-----------------|-----------------|-----------------|
    E|-----------------|-----------------|-----------------|-----------------|
    
    
    Intro…
  • INTRO RIFF
    
    E|---------------------------------|
    B|---------------------------------|
    G|---------------------------------|
    D|-9---9-9-9-9-⁄---5-------4-------|
    A|-9---9-9-9-9-⁄---5-------4-------|
    E|-7---7-7-7-7-⁄---3-------2-------|
    
    
    VERSE…
  • intro
             pm______________|
    |------------------------|
    |------------------------|
    |-7--------7-7-7-7-7-7-7-|
    |-7--------7-7-7-7-7-7-7-|
    |-5--------5-5-5-5-5-5-5-|
    |------------------------|
    
    verse
    
    |-----------------------------------------------------------------
    |-----------------------------------------------------------------
    |-7-7-7-7-7-7-7-7---------------------------------7-7-7-7-7-7-7-7-
    |-7-7-7-7-7-7-7-7-2-2-2-2-2-2-2-2-5-5-5-5-5-5-5-5-7-7-7-7-7-7-7-7-
    |-5-5-5-5-5-5-5-5-2-2-2-2-2-2-2-2-5-5-5-5-5-5-5-5-5-5-5-5-5-5-5-5-
    |-----------------0-0-0-0-0-0-0-0-3-3-3-3-3-3-3-3-----------------…
  • verse
    
    |-------------------------------------------------------------|
    |-------------------------------------------------------------|
    |-------------------------------------------------------------|
    |-6-6-6-6-6-6-6-6-6-6-6-6-4-4-4-4-4-4-4-6-6-6-6-6-4-4-4-6-6-6-|
    |-6-6-6-6-6-6-6-6-6-6-6-6-4-4-4-4-4-4-4-6-6-6-6-6-4-4-4-6-6-6-|
    |-4-4-4-4-4-4-4-4-4-4-4-4-2-2-2-2-2-2-2-4-4-4-4-4-2-2-2-4-4-4-|
    
    chorus
    
    |-------------------------------------------------------------|
    |-------------------------------------------------------------|
    |-4-4-4-4-4-4-4-4-4-4-4-4-------------------------------------|
    |-4-4-4-4-4-4-4-4-4-4-4-4-4-4-4-4-4-4-4-6-6-6-6-6-4-4-4-6-6-6-|
    |-2-2-2-2-2-2-2-2-2-2-2-2-4-4-4-4-4-4-4-6-6-6-6-6-4-4-4-6-6-6-|
    |-------------------------2-2-2-2-2-2-2-4-4-4-4-4-2-2-2-4-4-4-|
    
    |-----------------------------------------------------------------
    |-----------------------------------------------------------------
    |-4-4-4-4-4-4-4-4-4---------------4-4-4-4-4-4-4-4-4---------------
    |-4-4-4-4-4-4-4-4-4-4-4-4-4-4-4-4-4-4-4-4-4-4-4-4-4-4-4-4-4-4-4-4-
    |-2-2-2-2-2-2-2-2-2-4-4-4-4-4-4-4-2-2-2-2-2-2-2-2-2-4-4-4-4-4-4-4-
    |-------------------2-2-2-2-2-2-2-------------------2-2-2-2-2-2-2-…
  • Tuning: Standard EADGBe
    
    Chords used:
    B -  x24442
    E -  022100
    F# - 244322
    C -  x32010
    F -  133211
    G -  320033
    D -  xx0232
    A -  x02220
    Bb - x13331
    G# - 466544
    Bb - x13331
    C# - x46664
    
    
    Intro: B--E-F# x2
    
    
    Verse…
  • In the Chorus, you can also play a fast Bb before the B chord.
    
    (e.g. F# G# Bb B
    Never thought I'd seen the likes of you around this place )
    
    [Verse 1]
    
    F# G# B
    You come around every now and then
    F# G# B
    Your clothes are…
  • (A)Intro
    
    |----------------------------|
    |----------------------------|
    |------------------------3---|
    |--5-5-5-5-5-3-3-3-3-3-3-3-3-| play 4 times
    |--5-5-5-5-5-3-3-3-3-3-3-1-3-|
    |--3-3-3-3-3-1-0-1-0-1-0---0-|
    
    (B)Verse
    
    |-----------|
    |-----------|
    |-----------|
    |--5-5-5-5--|…
  • Intro (x4)
    C5 F#5 G5
    e|---------------------------------------------------------------|
    B|---------------------------------------------------------------|
    G|-5--5----------------------------------------------------------|
    D|-5--5--4--5----------------------------------------------------|
    A|-3--3--4--5----------------------------------------------------|
    E|-------2--3----------------------------------------------------|
    
    Verse
    G5…
  • Intro
    e|----|
    B|----|
    G|-6~-|
    D|-7~-|
    A|-7~-|
    E|-5~-|
    
    Verse
    e|-----------------------------------------------|
    B|-----------------------------------------------|
    G|-------------77777777777-----------------------|
    D|-22222222222-77777777777-777777777777777777777-|
    A|-22222222222-55555555555-777777777777777777777-|
    E|-00000000000-------------555555555555555555555-|
    
    Pre…
  • Intro:
    E D5 A5 E D5 A5
    E|------------------------|------------------------|
    B|------------------------|-9--9-------------------|
    G|-9--9-----7-------------|-9--9-----7-------------|
    D|-9--9--#--7--#--7--#----|-9--9--#--7--#--7--#----|
    A|-7--7-----5-----7-------|-7--7-----5-----7-------|
    E|----------------5-----0-|----------------5-----0-|
    1…
  • G------------------------------------------------------------
     D------------------------------------------------------------
     A------------------------------------------------------------
     E-|-5-77-55-77-----------------------------------------------------------…
  • A     G     E     A5    D5    F#    F     E5
    =0D
    |---------3-------------------------------------------|
    |---2-----0-------------------------------------------|
    |---2-----0-----1-----------7-----------------9-------|
    |---2-----0-----2-----7-----7-----4-----3-----9-------|
    |---0-----2-----2-----7-----5-----4-----3-----7-------|
    |---------3-----0-----5-----------2-----1-------------|
    =0D
    Intro:…
  • Standard Tuning (E A D G B E)
    
    Verse (two guitars):
    			          (She's an extraordinary girl)
    			          (She sees the mirror of herself)
       A	   D	   A	   D	   A	   D	   
    e|---------------------------------------------------|…
  • INTRO & CHORUS:
    e------------------------------------------------------
    B------------------------------------------------------
    G--8-8-8-8-8-8--5-5-5-5-5-5----------------------------
    D--8-8-8-8-8-8--5-5-5-5-5-5--6-6-6-6-6-6--8-8-8-8-8-8--
    A--6-6-6-6-6-6--3-3-3-3-3-3--6-6-6-6-6-6--8-8-8-8-8-8--
    E----------------------------4-4-4-4-4-4--6-6-6-6-6-6--
    
    VERSES:
    e------------------------------------------------------
    B------------------------------------------------------
    G------------------------------------------------------
    D--2-2-2-2-2-2--7-7-7-7-7-7--4-4-4-4-4-4--5-5-5-5-5-5--
    A--2-2-2-2-2-2--7-7-7-7-7-7--4-4-4-4-4-4--5-5-5-5-5-5--
    E--0-0-0-0-0-0--5-5-5-5-5-5--2-2-2-2-2-2--3-3-3-3-3-3--
    
    BRIDGE:
    e---------------------
    B---------------------
    G------4--------------
    D--5-7-4-7-5-5-5-5-5--
    A--5-7-2-7-5-5-5-5-5--
    E--3-5---5-3-3-3-3-3--
    
    intro…
  • e----------------------------
    B----------------------------
    G----------------------------
    D-6--6-6-6-6--8-8-8-8-8-8----
    A-6--6-6-6-6--8-8-8-8-8-8----
    E-4--4-4-4-4--6-6-6-6-6-6----
    
    e-----------------------
    B-----------------------
    G--6-6--8-8-8-8---------
    D--6-6--8-8-8-8---------
    A--4-4--6-6-6-6---------
    E-----------------------
    
    e------------------------------------
    B------------------------------------
    G--------------6-6-6--8-8-8-8-8------
    D-6-6-6-6-6-6--6-6-6--8-8-8-8-8------…
  • VERSE 1
    (I've paid my dues)-No Guitar
    (Time after time)-No Guitar
    (I've done my sentence)-No Guitar
    (But committed no crime)-No Guitar
    
    VERSE 2
    (And bad mistakes)
    E[--------------------------------------------------------]
    B[---------------7-----------8----------------------------]
    G[-----------------7---7---7---7---7---7------------------]
    D[-------------------7---7-------7---7--------------------]
    A[--------------------------------------------------------]
    E[--------------------------------------------------------]
    
    (I've…
  • intro/verse:
    
        p.m.........................
    e|---------------------------------------------------------------------------|
    B|---------------------------------------------------------------------------|
    G|-------------------------------------0~~--0~~--0~~--0~~--------------------|
    D|------7-----5-----7-----5-----7----4~~--2~~--4~~--2~~----------------------|
    A|--5-5---5-5---5-5---5-5---5-5----5~~--3~~--5~~--3~~------------------------|
    E|---------------------------------------------------------------------------|
    
    chorus:
    
    e|---------------------------------------------------------------------------|
    B|---------------------------------------------------------------------------|
    G|------------------------7--7--7-7--4--4--4-4-------------------------------|
    D|--5--5--5-5--7--7--7-7--7--7--7-7--4--4--4-4-------------------------------|
    A|--5--5--5-5--7--7--7-7--5--5--5-5--2--2--2-2-------------------------------|
    E|--3--3--3-3--5--5--5-5-----------------------------------------------------|
    
    bridge:…
  • e------------------------------------------------|
    B------------------------------------------------|
    G-7-------------------------6--------------------|
    D-7-------------------------6--------------------|
    A-5-------------------------5--------------------|
    E------------------------------------------------|
    Said…
  • Intro:
     B	B(PM)...
     
     Verse:
     E	D	A	E
     Do as l say and not as l do
     E		D		A
     Because the shit's so thick you can't run away.
     E		D	A	E
     I beg to differ and on the contrary,
     E		D		A
     L agree with every word that you say.…
  • [ A ]
    
     A
    Oh love, oh love, won’t you rain on me tonight?
    Oh life, oh life, please don’t pass me by.
    Don’t stop, don’t stop, don’t stop when the red lights flash.
     E
    Oh ride, free ride, won’t you take me   close to…
  • gtr comes in at the 2nd verse
    
    e|----------------------------------------|
    B|----------------------------------------|
    G|---9999999999-777777777-444444444444444-|
    D|---xxxxxxxxxx-xxxxxxxxx-xxxxxxxxxxxxxxx-|
    A|-5/7777777777-555555555-222222222222222-|
    E|----------------------------------------|
    
    e|---------------------------------------|
    B|---------------------------------------|
    G|-99999999999------------77777777777777-|
    D|-xxxxxxxxxxx-7777777777-xxxxxxxxxxxxxx-|
    A|-77777777777-xxxxxxxxxx-55555555555555-|
    E|-------------5555555555----------------|
    
    Chorus:…
  • Intro/Bridge:
       A5   E5 E5
    e---------------|
    b---------------|
    g----------99---|
    D---7---22-99---|(x3)
    A---7---22-77---|
    E---5---00------|
    
         D5   E5
    e--------------|
    b--------------|
    g---7-77-9-9---|
    D---7-77-9-9---|
    A---5-55-7-7---|
    E--------------|
    
    Verse:…
  • Intro:
    distorted: 0:00 - 0:38 (words come in 3rd time through)
    E|----------------------------------|
    B|----------------------------------|
    G|----------------------------------|
    D|--7-7----5-5----4-4----3-3--2-2---|
    A|--7-7----5-5----4-4----3-3--2-2---|
    E|--5-5----3-3----2-2----1-1--0-0---|6x
    I'm...trying...sleep...
    I'm...…
  • Tunning standard or full step down
    
    
    Solo-Guitar 4 (Light distortion with wah)
    
    |------------------------------------------------------------------------------------------------|
    |------------------------------------------------------------------------------------------------|
    |-14-14-14-14-17-17-14-14-16-16-16-16-17-17-14-14-14-14-14-14-14-14-14-14-14-14-14-14-14-14-14-14|
    |------------------------------------------------------------------------------------------------|
    |-12-12-12-12-15-15-12-12-14-14-14-14-15-15-12-12-12-12-12-12-12-12-12-12-12-12-12-12-12-12-12-12|
    |------------------------------------------------------------------------------------------------|
    
    |------------------------------------------------------------------------------------------------|
    |------------------------------------------------------------------------------------------------|
    |-14-14-14-14-17-17-14-14-16-16-16-16-17-17-19-19-19-19-17-17-16-16-17-17-17-17-16-16-12-12-12-12|
    |------------------------------------------------------------------------------------------------|
    |-12-12-12-12-15-15-12-12-14-14-14-14-15-15-17-17-17-17-15-15-14-14-15-15-15-15-14-14-10-10-10-10|
    |------------------------------------------------------------------------------------------------|
    
    |---------------------------------------------------------------------------------------------|
    |---------------------------------------------------------------------------------------------|
    |-12-12-9--17-17-14-14-16-16-16-16-17-17-14-14-14-14-14-14-14-14-14-14-14-14-14-14-14-14-14-9-|
    |---------------------------------------------------------------------------------------------|
    |-10-10-7--15-15-12-12-14-14-14-14-15-15-12-12-12-12-12-12-12-12-12-12-12-12-12-12-12-12-12-7-|
    |---------------------------------------------------------------------------------------------|
    
    |-------------------------------------------------------------------------|
    |-------------------------------------------------------------------------|
    |-14-14-14-14-17-17-14-14-16-16-16-16-17-17-19-19-19-19-19-19-19-19-19-19^|
    |-------------------------------------------------------------------------|
    |-12-12-12-12-15-15-12-12-14-14-14-14-15-15-17-17-17-17-17-17-17-17-17-17^|
    |-------------------------------------------------------------------------|
    
    (Keep…
  • intro(no guitar chords-just bass and drums)
    
    Lights out, here comes the night,
    As the darkness falls over the light
    
    Ab                        F#
    Lights out, there goes the day
    Ab                          C#
    And…
  • D
        Breaking in a sweat
    D
        Like a bomb threat
    A
        Use your silhouette, faded out
    
    Nothing left to lose
    Detonate the fuse
    Another break and you fall out
    
    
    Getting off a binge
    Get a second wind
    Another…
  • Chords used:
    |  E  |  A  |Bsus4 |C#sus| E5  |
    |--0--|--0--|--0--|--0--|--0--|
    |--0--|--2--|--0--|--0--|--0--|
    |--1--|--2--|--4--|--6--|--9--|
    |--2--|--2--|--4--|--6--|--9--|
    |--2--|--0--|--2--|--4--|--7--|
    |--0--|--x--|--x--|--X--|--X--|
    
    
    
    Verse…
  • Intro: A  D
    
    A                                D
    Starry nights city lights coming down over me
    A                                D
    Skyscrapers and stargazers in my head
    A                                D
    Are we we are,…
  • Tuning - Standard
    
           (Intro)
    G|  ----------------------------------------------------|
    D|  ----------------------------------------------------|
    A|  ---------------------------2-22-22-22-22-22-22-22---|
    E | -2-22-22-22-22-22-22-22-2---------------------------|
    
    G|…
  • Standard tuning
    
    opening:
    --------------------------|----------------------------|
    -------3------------------|----------------------------|
    -4-----2--4---------------|-----------------------4----|
    -4--2--0--4---------------|-6-6-6-6-6---2-2-2-2-2-4----|
    -2--2-----2---hold…
  • intro
    
    E|---------------------------------|
    B|-2-2-2-2-2-2-2-2-2-2-2-2-2-2-2-2-|
    G|-3-3-3-3-3-3-3-3-3-3-3-3-3-3-3-3-|
    D|-3-3-3-3-3-3-3-3-3-3-3-3-3-3-3-3-|
    A|-1-1-1-1-1-1-1-1-1-1-1-1-1-1-1-1-|
    E|---------------------------------|
    
    verse
    
    E|------------------------------------------------------------------------|
    B|-2--2--2--2--2--2--2--2--2--2--2--2--2--2--2--2--2--2--2--2-------------|
    G|-3--3--3--3--3--3--3--3--3--3--3--3--3--3--3--3--3--3--3--3--2--2--2--2-|
    D|-3--3--3--3--3--3--3--3--3--3--3--3--3--3--3--3--3--3--3--3--3--3--3--3-|
    A|-1--1--1--1--1--1--1--1--1--1--1--1--1--1--1--1--1--1--1--1--3--3--3--3-|
    E|-------------------------------------------------------------1--1--1--1-|
    
    E|---------------------------------------------|
    B|2--2--2--2--2:---1:---------------2--2--2--2-|
    G|3--3--3--3--3:---2:---2--2--2--2--3--3--3--3-|
    D|3--3--3--3--3:---3:---3--3--3--3--3--3--3--3-|
    A|1--1--1--1--1:---0:---3--3--3--3--1--1--1--1-|
    E|----------------------1--1--1--1-------------|
    
    chorus
    
    E|------------------------------------------------------------------------|
    B|-------------2--2--2--2--------------2--2--2--2--------------2--2--2--2-|
    G|-2--2--2--2--3--3--3--3--2--2--2--2--3--3--3--3--2--2--2--2--3--3--3--3-|
    D|-3--3--3--3--3--3--3--3--3--3--3--3--3--3--3--3--3--3--3--3--3--3--3--3-|
    A|-3--3--3--3--1--1--1--1--3--3--3--3--1--1--1--1--3--3--3--3--1--1--1--1-|
    E|-1--1--1--1--------------1--1--1--1--------------1--1--1--1-------------|
    
    E|------------------------|
    B|------------------------|
    G|2-2-2-2-2-2-2-2-2-2-2-2-|
    D|2-2-2-2-2-2-3-3-3-3-3-3-|
    A|2-2-2-2-2-2-3-3-3-3-3-3-|
    E|0-0-0-0-0-0-1-1-1-1-1-1-|
    
    bridge
    
    E|-------------------------------------------------------------------------|
    B|-----------------2--2--2--2------------------2--2--2--2------------------|
    G|-3-3-3-3-2-2-2-2-3--3--3--3--3-3-3-3-2-2-2-2-3--3--3--3--3-3-3-3-2-2-2-2-|
    D|-4-4-4-4-3-3-3-3-3--3--3--3--4-4-4-4-3-3-3-3-3--3--3--3--4-4-4-4-3-3-3-3-|
    A|-4-4-4-4-3-3-3-3-1--1--1--1--4-4-4-4-3-3-3-3-1--1--1--1--4-4-4-4-3-3-3-3-|
    E|-2-2-2-2-1-1-1-1-------------2-2-2-2-1-1-1-1-------------2-2-2-2-1-1-1-1-|
    
    E|--------------------------------------|
    B|2--2--2--2----------------------------|
    G|3--3--3--3--3-3-3-3-3-3-3-3-2-2-2-2-2-|
    D|3--3--3--3--4-4-4-4-4-4-4-4-3-3-3-3-3-|
    A|1--1--1--1--4-4-4-4-4-4-4-4-3-3-3-3-3-|
    E|------------2-2-2-2-2-2-2-2-1-1-1-1-1-|
    
    lyrics
    
    virginia…
  • Intro Gtr.1 (palm muted) Intro Gtr.2 (let ring)
    |----------------|---------------||---------------|-------------------||
    |----------------|---------------||------0-----0--|------0--0--0------||
    |----------------|---------------||--2b-----2--2--|--2b--2--2--2--2b--||
    |-------2-----0--|-------2--(2)--||---------------|-------------------||
    |----------------|---------------||---------------|-------------------||
    |--2/3-----3-----|--2/3------0---||---------------|-------------------||
    
    
    Verse
    4x
    ||-------------------------|--------------------------||
    ||-------------------------|--------------------------||
    ||*------------------------|-------------------------*||
    ||*------------------------|-------------------------*||
    ||---7/9--9--9--7/9--9--9--|--7/9--9--9-----9--9--9---||
    ||---5/7--7--7--5/7--7--7--|--5/7--7--7-----7--7--7---||
    
    
    
    ||-------------------------|-------------------------|
    ||-------------------------|-------------------------|
    ||*------------------------|-------------------------|
    ||*------------------------|-------------------------|
    ||---3/4--4--4--3/4--4--4--|--3/4--4--4-----4--4--9--|
    ||---1/6--6--6--1/6--6--6--|--1/2--2--2-----2--2--7--|
    
    
    |-------------------------|--------------------------||
    |-------------------------|--------------------------||
    |-------------------------|-------------------------*||
    |-------------------------|-------------------------*||
    |--9-----9--9--7/9--9--9--|--7/9--9--9-----9--9--9---||
    |--7-----7--7--5/7--7--7--|--5/7--7--7-----7--7--7---||
    
    
    Chorus
    ||----------------------------|--------------------------|
    ||----------------------------|--------------------------|
    ||*---------------------------|--------------------------|
    ||*---------------------------|--------------------------|
    ||----5--5--5--5--5--5--5--5--|--7--7--7--7--7--7--7--7--|
    ||----3--3--3--3--3--3--3--3--|--5--5--5--5--5--5--5--5--|
    
    
    
    |------------------------|--------------------------||
    |------------------------|--------------------------||
    |------------------------|-------------------------*||
    |--6/7--7--7--6/7--7--7--|--6/7--7--7-----7--7--7--*||
    |--4/5--5--5--4/5--5--5--|--4/5--5--5-----5--5--5---||
    |------------------------|--------------------------||
    
    |--------------------------||
    |--------------------------||
    |--------------------------||
    |--------------------------||
    |--7--7--7--7--7--7--7--7--||
    |--5--5--5--5--5--5--5--5--||…
  • E|-----------------|-----------------|-----------------|-----------------|
    B|-----------------|-----------------|-----------------|-----------------|
    G|-----------------|-------7-7-------|-----------------|-----------------|
    D|-7-----2-2-----7-|-7-----7-7-----7-|-7-----2-2-----7-|-7-----2-2-------|
    A|-7---X-2-2---X-7-|-7---X-5-5---X-7-|-7---X-2-2---X-7-|-7---X-2-2-------|
    E|-5---X-0-0---X-5-|-5---X-------X-5-|-5---X-0-0---X-5-|-5---X-0-0-------|
    
    E|-----------------|-----------------|-----------------|-----------------|
    B|-----------------|-----------------|-----------------|-----------------|
    G|-----------------|-------7-7-------|-----------------|-----------------|
    D|-7-----2-2-----7-|-7-----7-7-----7-|-7-----2-2-----7-|-7-----7-7-------|
    A|-7---X-2-2---X-7-|-7---X-5-5---X-7-|-7---X-2-2---X-7-|-7---X-7-7-------|
    E|-5---X-0-0---X-5-|-5---X-------X-5-|-5---X-0-0---X-5-|-5---X-5-5-------|
    
    CHORUS…
  • Intro:
    G-----------------|------------------|
    D--3----2----0----|------------------|  Repeat
    A----------------3|------------------|
    E-----------------|-3-3-3-3-3-3-3-3-3|
    
    verse:
    G----------------------------------|
    D----------------------------------|
    A--3-3-3-3----------1-1-1-1--------|
    E-----------3-3-3-3---------1-1-1-1|…
  • There you go! Sounds really good acoustic.
    
    E
    I've said it a thousand times
    Ab C#
    And now a thousand more
    A E
    We'll never part
    A B
    I'll never stray again from you
    E Ab C#
    As always you just go home to your heart
    A…
  • INTRO:     (8'th notes, muted)
     G#-------------------------------------------
     
     
     VERSE:
     
     G#----------------(muted)--------------------------
     I wonder down these streets all by myself
     G#----------------(muted)----------------…
  • Intro/Verse/Bridge:
         Eb5   Ab5  Db5
    e----------------------|
    b----------------------|
    g---8-8-888-----6-66---|
    D---8-8-888-666-6-66---|
    A---6-6-666-666-4-44---|
    E-----------444--------|
    
    Inro x4 (w/ feedback)
    
    Pick scrapes…
  • intro
    ------------------------------------------------|
    ------3-----------3-----------3-----------3-----|
    --------0-----------0-----------0-------2---2---|
    ----0-----0-----0-----0-----2-----2---0-------0-|
    --------------------------3---------------------|
    
    This…
  • Solo:
    
    E-----------------------5-----5-----5-----5---|
    B--7---8---10--(0)------5-----5-----5-----5---|
    G--7---7---7---(0)--7b9---7b9---7b9---7b9-----|
    D---------------------------------------------|    x4
    A---------------------------------------------|
    E---------------------------------------------|
    
    E---------------------------------------------|
    B--9---10--12--10--9---10---------------------|
    G--9---9---9---9---9---9----------------------|
    D---------------------------------------------|…
  • Here's the intro
             
        PLAY THIS FOUR TIMES
    |---------------------------------|
    |---------------------------------|
    |---------------------------------|
    |------7-7--5-5-5-5-5-5-----------|
    |-5-5--5-5--3-3-3-3-3-3-----------|
    |-3-3-----------------------------|
    
    
    While…
  • verse
    |--------------------------------|
    |--------------------------------|
    |--------------------------------|
    |-9--9--9--9-9-7-7-7-10-10-10-10-|
    |-9--9--9--9-9-7-7-7-10-10-10-10-|
    |-7--7--7--7-7-5-5-5--8--8--8--8-|
    
    chorus
    |----------------------------|
    |----------------------------|
    |-8--8--8--8-8-------9-9-9-9-|
    |-8--8--8--8-8-8-8-8-9-9-9-9-|
    |-6--6--6--6-6-8-8-8-7-7-7-7-|
    |--------------6-6-6---------|…
  • Verse/Chorus
    G|---------------------------------------------------------------------------|
    D|------------------------------------------------6-4-3h4p4------------------|
    A|-4--4-4---4-4-4-----------------4--4-4---4-4-4-------------6--4------------|
    E|----------------4-4-4-2--2-2-----------------------------------------------|
    
    Pre…
  • Intro Gtr.1 (palm muted) Intro Gtr.2 (let ring)
    |----------------|---------------||---------------|-------------------||
    |----------------|---------------||------0-----0--|------0--0--0------||
    |----------------|---------------||--2b-----2--2--|--2b--2--2--2--2b--||
    |-------2-----0--|-------2--(2)--||---------------|-------------------||
    |----------------|---------------||---------------|-------------------||
    |--2/3-----3-----|--2/3------0---||---------------|-------------------||
    
    John…
  • Intro
    E-------------------------------------------|
    B-------------------------------------------|
    G-------------------------------------------|
    D----7-7-7-7-7-7-7-7-7---5-5-5-5-5-5-5-5-5--|
    A----7-7-7-7-7-7-7-7-7---5-5-5-5-5-5-5-5-5--|
    E----5-5-5-5-5-5-5-5-5---3-3-3-3-3-3-3-3-3--|
    
    Verse…
  • Introduccion
       G#5-A5
    e|---------------------------------------------------------------|
    B|---------------------------------------------------------------|
    G|---------------------------------------------------------------|
    D|-6-/-7--7--7--7------------------------------------------------|
    A|-6-/-7--7--7--7------------------------------------------------|
    E|-4-/-5--5--5--5------------------------------------------------|
    
    Verso…
  • [ G x2 ]
    
    G5
    Walking after dark
    In the New York City park
    Am
    Your thoughts are so unholy
     G
    In the holiness of old
    On with Christian soldiers
    Filled with jivin' mind control
    
    E
    The bull left on the dance floor
    D
    Ridin',…
  • Tune 1/2 step down
     
     
     Intro:
     
     D  A  E
     
     
     Verse:
     
     A  Bb A   D  E
     A  Bb A   D  E
     
     A
     Roaming round your house
     Bb A           D E
     Wasting your time
     A
     No obligation
     Bb A           D E
     Wasting your time
     A
     So…
  • Play only on 3rd last rep of ending)
    
    G5 C5 G5
    E|-------------------------|
    B|-------------------------|
    G|-------------------------|
    D|--------------5--5--5----|
    A|--5--5--5--5--3--3--3--5-|
    E|--3--3--3--3-----------3-|
    
    CHORUS
    
    E5…
  • 1st verse
    e -------------------------------------------
    B -------------------------------------------
    G ------------------------------------------- play 12 times
    D -7-7---5-5---4-4---3-3-2-2-----------------
    A -7-7---5-5---4-4---3-3-2-2-----------------
    E…
  • verse 
    
    |-------------------------------|
    |-------------------------------|
    |-6-6-6-6-6-6-6-6-6-6-6-6-6-6-6-|
    |-6-6-6-6-6-6-6-6-6-6-6-6-6-6-6-|
    |-4-4-4-4-4-4-4-4-4-4-4-4-4-4-4-|
    |-------------------------------|
    
    |--------------------------------|
    |--------------------------------|
    |--------------------------------|
    |-6-6-6-6-6-6-6----6-6-6-6-6-6-6-|
    |-6-6-6-6-6-6-6----6-6-6-6-6-6-6-|
    |-4-4-4-4-4-4-4----4-4-4-4-4-4-4-|…
  • Tune to Eb
    
    Chords:
        EADGBe
    A:  577655
    A#: 6887--
    B:  7998--
    C:  3355-- 8-10-10-9 In the intro (maybe)
    D:  5577--
    F#: 2443--
    G:  3554--
    
    Intro:
    C B A# A
    
    Verse 1:
    A
    Come with me and lets go for a ride
    A
    Follow me to the…
  • Intro: B B F# G# F#   Play that 4x for intro
     
     Verse 1:
       B    F#
     I sit alone in my bedroom
     B              F#
     Staring at the walls
          B       F#
     I've been up all damn night long
     B                    F#
     My pulse…
  • Am                           G           Am
    As soon as you're born they make you feel small
       C                     G          Am
    By giving you no time instead of it all
                        G                       Am
    Till…
  • =0D
    CHORDS
    =0D
    
         G#    C     C#     Eb       F
    |---------------------------------------|
    |---------------------------------------|
    |----------5-----6------8---------------|
    |----6-----5-----6------8--------3------|
    |----6-----3-----4------6--------3------|
    |----4---------------------------1------|
    =0D
    Intro:…
  • one of tre's funny numbers.....
    
    ( 1,2 STRUM)
    
            D                          A
    Well Billie Joe's Mom, she's the queen of all the acrobats,
                                 D
    She can do the tricks that give the kids…
  • verse
    
    E|-------------------------------------------------------------|
    B|-------------------------------------------------------------|
    G|-------------------7-7-7-------------7-7-7-------------------|
    D|-7-7-7-2-2-2-7-7-7-7-7-7-7-7-7-2-2-2-7-7-7-2-2-2-7-7-7-2-2-2-|
    A|-7-7-7-2-2-2-7-7-7-5-5-5-7-7-7-2-2-2-5-5-5-2-2-2-7-7-7-2-2-2-|
    E|-5-5-5-0-0-0-5-5-5-------5-5-5-0-0-0-------0-0-0-5-5-5-0-0-0-|
    
    E|--------------------------------------|
    B|--------------------------------------|
    G|------7-7-7---------------------------|
    D|7-7-7-7-7-7-7-7-7-2-2-2-7-7-7-7-7-7-7-|
    A|7-7-7-5-5-5-7-7-7-2-2-2-7-7-7-7-7-7-7-|
    E|5-5-5-------5-5-5-0-0-0-5-5-5-5-5-5-5-|
    
    chorus
    
    E|-----------------------------------------------------------------|
    B|-----------------------------------------------------------------|
    G|-------7-7-7-------------------7-7-7-------9-9-9-9-9-------7-7-7-|
    D|-4-4-4-7-7-7-7-7-7-2-2-2-4-4-4-7-7-7-7-7-7-9-9-9-9-9-4-4-4-7-7-7-|
    A|-4-4-4-5-5-5-7-7-7-2-2-2-4-4-4-5-5-5-7-7-7-7-7-7-7-7-4-4-4-5-5-5-|
    E|-2-2-2-------5-5-5-0-0-0-2-2-2-------5-5-5-----------2-2-2-------|
    
    E|----------------------------------------------|
    B|----------------------------------------------|
    G|------------------7-7-7-------9-9-9-9-9-9-9-9-|
    D|7-7-7-2-2-2-4-4-4-7-7-7-7-7-7-9-9-9-9-9-9-9-9-|
    A|7-7-7-2-2-2-4-4-4-5-5-5-7-7-7-7-7-7-7-7-7-7-7-|
    E|5-5-5-0-0-0-2-2-2-------5-5-5-----------------|
    
    solo
    
    E|--------------------------------------------------------------------|
    B|-5--5-5-5--5-5-7--7-7-5--5-5-5--5-5-5--5-5-5--5-5-5-3-3-3--5-5-5--5-|
    G|--------------------------------------------------------------------|
    D|--------------------------------------------------------------------|
    A|--------------------------------------------------------------------|
    E|--------------------------------------------------------------------|
    
    E|--------------------------2-0-------|
    B|0h2-2-2-2--3-3-3-2--2-2-2-----2-0---|
    G|----------------------------------2-|
    D|------------------------------------|
    A|------------------------------------|
    E|------------------------------------|
    
    E|-2--2-2-3--3-3-2--2-2-0--0-0--2--2-2-3--3-3-2--2-2-5--5-5-|
    B|-2--2-2-3--3-3-2--2-2-0--0-0--2--2-2-3--3-3-2--2-2-5--5-5-|
    G|----------------------------------------------------------|
    D|----------------------------------------------------------|
    A|----------------------------------------------------------|
    E|----------------------------------------------------------|
    
    E|2--2-2-3--3-3-2--2-2-0--0-0--2--2-2-3--3-3-2--2-2-5--5-5-5-5-5-5-5⁄-|
    B|2--2-2-3--3-3-2--2-2-0--0-0--2--2-2-3--3-3-2--2-2-5--5-5-5-5-5-5-5⁄-|
    G|--------------------------------------------------------------------|
    D|--------------------------------------------------------------------|
    A|--------------------------------------------------------------------|
    E|--------------------------------------------------------------------|
    
    lyrics
    
    i…
  • Tuning:  Eb Ab Db Gb Bb eb  (1/2 step down)
    
    
    | /  slide up
    | \  slide down
    | h  hammer-on
    | p  pull-off
    | ~  vibrato
    | +  harmonic
    | x  Mute note
    
    
    Intro (picks off where the previous song ends at about 1:50min)
    
    e|---------------------------------------------------------------------------|
    B|---------------------------------------------------------------------------|
    G|---------------------------------------------------------------------------|
    D|----5~-/--7~---------------------------------------------------------------|
    A|----5~-/--7~---------------------------------------------------------------|
    E|----3~-/--5~---------------------------------------------------------------|
    
    
    Verse…
  • Chords:
       EADGBe
    A: 5776--
    B: 7998--
    E: -799--
    
    Intro:
    E
    
    Verse 1:
    E
    Don't want to have you hangin
    Around me like a leech
    I think you're just a problem
    So stay the hell away from me because I don't believe in you
        A…
  • 1st Part:
     
     
     E-|-2----2----2----2----3----3----3----3--------------------------------------|
     B-|---3----3----3----3----3----3----3----3------------------------------------|
     G-----------------------------------------------------------------|…
  • A
    Hey!       You're giving me a heart attack
    A riff)
      You're giving a cardiac arrest when I'm standing at the traffic light
    Hey! I wanna get inside of you
    I wanna crack your cranium, delirium on the lower east side…
  • Intro:
    
    E:------------:
    B:------------:
    G:--4---------:
    D:--4--6------:
    A:--2--6------:
    E:-----4------:
    
    Main Riff:
    
    E------------------------------------:
    B------------------------------------:
    G-4-X-X-4-X-4-4-4-4------------------:…
  • B
    desperate 
            Eb
    but not hopeless
    Ab
    I feel so useless
    E
    in the murder city
    
    desperate
    but not helpless
    the clock strikes midnight
    in the murder city
    
    
    B          Eb        
    I'm a wide awake…
  • B
    Gonna build it up just to burn it down
    B
    You're a princess, I'm a fucking clown
    Stop the presses cause I'm killing time
    Won't you be my bloody valentine?
    
            E
    You're just a fucking kid
         F#
    And no one…
  • 4/4 time, 120bpm
    
    G|-----------------|-----------------|-----------------|-----------------|
    D|-----------------|-----------------|-----------------|-----------------|
    A|-2-----------2---|-0-----------0---|-2-----------2---|-0-----------0---|
    E|-------2---------|-------0---------|-------2---------|-------0---------|
    |…
  • Verse
    |---------------------------------|
    |---------------------------------|
    |-9-x-----9-x-----6-x-----6-x-----|
    |-9-x-9-x-9-x-9-x-6-x-6-x-6-x-6-x-|
    |-7-x-9-x-7-x-9-x-4-x-6-x-4-x-6-x-|
    |-----7-x-----7-x-----4-x-----4-x-|
    
    post…
  • Intro: D-G-Am
           D-G-Am
           D-G-Am
           G
    
    D
    I don't wanna go back home
    G                     
    I don't want a kiss goodnight
    Am                                       D G
    Let us paralyze this moment till…
  • Intro
    E|----------------------------------------------------------------||
    B|----------------------------------------------------------------||
    G|----------4-4-4-4--5-5-5-5--------------------------------------||
    D|-2-2-2-2--4-4-4-4--5-5-5-5-5-5-5-5------------------------------||
    A|-2-2-2-2--2-2-2-2--3-3-3-3-5-5-5-5------------------------------||
    E|-0-0-0-0-------------------3-3-3-2------------------------------||
    
    
    E|------------------0-0-0-----------------------------------------||
    B|------------------5-5-3-0---0-(0)(0)----------------------------||
    G|----------4-4-4-4-------4-2-4b-5r-4-----------------------------||
    D|-2-2-2-2--4-4-4-4--------------------5-5-5----------------------||
    A|-2-2-2-2--2-2-2-2--------------------5-5-5----------------------||
    E|-0-0-0-0-----------------------------3-3-2----------------------||
    
    Verse…
  • A                  F#m    Bm                     E
    Love conquers every time when two hearts come to collide.
    A                   F#m         Bm                     E
    You're the card in my valentine and the candy hearts…
  • Intro
                                               x2
    ||------8-7-------|-------------------------||
    ||o-8-------8-----|------------------------o||
    ||------------7---|----9-12-------11-14-----||
    ||--------------9-|-10------10-12-------12--||
    ||o---------------|------------------------o||
    ||----------------|-------------------------||…
  • Chords used.
       C   A#  A   B   C#
    e|---------------------------|
    B|---------------------------|
    G|---------------------------|
    D|---------------------------|
    A|-10--6---7---9---11--12----|
    E|-8---8---5---7---9---10----|
    
    Intro:
    C…
  • F# E F# E x2
    
    begin Verse:
    F# (stop)                  F#                     E
    Well, people try to put us down. (Talkin' bout my generation.)
    
    F# (stop)                   F#              E
    Just because we get around. (Talkin'…
  • Verse
    e|---------|
    B|---------|
    G|---------|
    D|-777-555-|
    A|-777-555-|
    E|-555-333-|
    
    Chorus
    e|-----------------------------------------------------------------|
    B|-----------------------------------------------------------------|
    G|-77777-77777-99999-99999-----------------77777-77777-99999-99999-|
    D|-77777-77777-99999-99999-77777-77777-4~--77777-77777-99999-99999-|
    A|-55555-55555-77777-77777-77777-77777-4~--55555-55555-77777-77777-|
    E|-------------------------55555-55555-2~--------------------------|
    
    Bridge
    e|--------------|
    B|--------------|
    G|--------------|
    D|--------------|
    A|---4-----5----|
    E|-5---5-3---3--|…
  • [ B ]
    
    B     
    Gonna ride the world like a merry-go-round
    LIke a ferris wheel like it's breaking down
    Drinking angel's piss, gonna crash and burn
    I just want some action so gimme my turn
    
           A
    Like a Chinese…
  • Guitar 1:riff 1
    E|-------12----------------------------12------------------------1212|
    B|----13-----15-12--------10-13-----13--------10-13-----9-13---13--13|
    G|-12--------------12--10--------12--------10--------10------12----12|
    D|-------------------------------------------------------------------|
    A|-------------------------------------------------------------------|
    E|-------------------------------------------------------------------|
    listen…
  • INTRO
    ---------------------------------------------------
    ---------------------------------------------------
    -------7-----------77--------------------------------
    -------------5-----------5---------------------
    
    VERSE
    ----------------------------033----------------
    ------------------------03-------------------
    ------------4444-2211---------------------------------
    -----5555---------------------------------------X4
    
    CHORUS
    ------------------------------------------33333333--
    ----------------------------------22222222---------
    -----------------------444444444----------------------
    =------55555555555-------------------------------------
    
    
    OUTRO
    ----------------------------------------------------------
    ----------------------------------------------------------
    --------------------------------------------------------5-
    ---555555-00000000-77777777-7-5555555000000000777777777-7-…
  • E
      I woke up in a pool of sweat
      At first I thought that I pissed the bed
      Heart of stars in the midnight hour
      A kiss of death from the Effiel Tower
    
    E
      And I went down  like the speed of sound
      You're out…
  • D 
      Bring me back to an hour ago
      Time stands still as the years Go by
      Brown eyed girl that's throwing down a bottle of Old English
      Back in the warehouse
     
    Em
      Old days are fine but are left so far behind
    G…
  • INTRO 
    E/---------------------  
    B/----4-4-4-3-5-6-4---- 
    D/--------------------- 
    D/--------------------- 
    A/---------------------x2 
    E/--------------------- 
    
    FOR THE VERSE HE JUST PALM MUTES THESE 
    
    
    E/---------------------…
  • G
    Well I ain't got much time so I'll get to the point
    A
    Do you wanna share a ride and get the fuck out of this joint?
    I've got an impulse so impulsive that it burns
    I wanna break your heart until it makes your stomach…
  • 1
    G|----------------------------------------------------------------|
    D|----------------------------------------------------------------|
    A|3-3--2-2-2-22-2-2-22-2-2-22-2-2-22-2-2-22-2-2-22-2-2-22-2-2-2/7-|
    E|----------------------------------------------------------------|>2
    
    >2
    G|---------------------------------------------------------|
    D|---------------------------------------------------------|
    A|7-7-7-77-7-7-77-7-7-77-7-7-77-7-7-77-7-7-77-7-7-77-7-070-|
    E|---------------------------------------------------------|>3
    
    >3
    G|---5-------5-------5-------------------|
    D|-2--5----2--5----2--5----2--10(7x)-----|
    A|3-3--0543-3--0543-3--0543-3-------10\6-|
    E|---------------------------------------|>4
    
    >4
    G|--------------------------------------------------------|
    D|--------------8------------8------------8---------------|
    A|6-6-6-66-6-6-6-6-6-66-6-6-6-6-6-66-6-6-6-66-066666-0207-|
    E|--------------------------------------------------------|>5
    
    >5
    G|--------------------------------------------------------|
    D|--------------------------------------------------------|
    A|7-7-77-7-7-77-7-7-77-7-7-77-7-7-77-7-7-77-7-7-77-7-0703-|
    E|--------------------------------------------------------|>6
    
    >6(THE…
  • Verse:
                      G5              C5 F5 G5
    e-------------------------------------------|
    b-------------------------------------------|
    g-----------------------------------5-------|
    D---5-5-5-5-5-5-5-5-5-5-5-5-5-5-5-5-5-3-5---|(x4)
    A---5-5-5-5-5-5-5-5-5-5-5-5-5-5-5-5-3-3-5---|
    E---3-3-3-3-3-3-3-3-3-3-3-3-3-3-3-3---1-3---|
    pm---------------------------------|
    
    Chorus:
    
    e-----------------------------------------------------------|
    b-----------------------------------------------------------|
    g---5-5-5-5---------5---7-----------5-5-5-5---------5---7---|
    D---5-5-5-5-5-5-5-5-5-5-7-5-5-5-5---5-5-5-5-5-5-5-5-5-5-7---|
    A---3-3-3-3-5-5-5-5-3-5-5-5-5-5-5---3-3-3-3-5-5-5-5-3-5-5---|
    E-----------3-3-3-3---3---3-3-3-3-----------3-3-3-3---3-----|…
  • Intro
    e|----------------------------------------------------------|
    B|----------------------------------------------------------|
    G|-----0----------0----------0----------0-----0-|
    D|---0-------0------0-------0------0-------0------0-----0---|
    A|----------------------------------------------------------|
    E|-3-----------3--3-----------3--3-----------3--1-----1-----|
    
    Verse
    e|------------------------------------------------------------|
    B|------------------------------------------------------------|
    G|-----0----------0----------0----------0-----|
    D|---0-------0------0-------0------0-------0------0-------0---|
    A|------------------------------------------------------------|
    E|-3-----------3--3-----------3--3-----------3--3-----------3-|
    
    e…
  • Tuning: Standard EADGBe
    
    Chords used:
    C - x32010
    F - 133211
    G - 320003
    
    
    Verse 1:
    C                     F    C
    Sing us a song of the century
           C
    That's louder than bombs
         G
    And Eternity
        C…
  • Intro:
                                       D5                      
    e-------------------------------------------------------------------|
    b-------------------------------------------------------------------|
    g--7-7-7-7-7-7-7-7-7-7-7-7-7-7-7-7-7-7-7-7-7-7-7-7-7-7-7-7-7-7-7-7--|
    D--7-7-7-7-7-7-7-7-7-7-7-7-7-7-7-7-7-7-7-7-7-7-7-7-7-7-7-7-7-7-7-7--|
    A--5-5-5-5-5-5-5-5-5-5-5-5-5-5-5-5-5-5-5-5-5-5-5-5-5-5-5-5-5-5-5-5--|
    E-------------------------------------------------------------------|
    Pm------------------------------------------------------------------|
    
    e---10/9-7/5---|
    b--------------|
    g--------------|(x1)
    D--------------|
    A--------------|
    E--------------|
    
    Verse:…
  • D#
    This whiskey sour, amateur hour
    A
    Raise your glass and toast your friends
    A
    Someday we will fight again
     
         G#m
    Well, your enemies, your tragedies
    A
    Pocket knives and rusty chains
     B
    Where the hell is the…
  • Intro:
     E-------2---------------3-------------3---------------3------------|
     B----3----3---------3----3--3-------3--3---3-------3----3---3------|
     G---2-2--2-2------0---0---0-------0--0---0--------0-0-----0--------|…
  • ----------------|-------------------------------------------------------------
    ----------------|-------------------------------------------------------------
    --4-------------|----4xx4-x4-4-x4-4-------------------------------------------
    --4---------6---|----4xx4-x4-4-x4-4-6xx6-x6-6-x6-6----------------------------
    --2---------6---|----2xx2-x2-2-x2-2-6xx6-x6-6-x6-6----------------------------
    ------------4---|-------------------4xx4-x4-4-x4-4----------------------------
    Intro…
  • A
          Shut your mouth 'cause you talk too much
          And I don't give a damn anyway
    A
          You always seem to be stepping in shit
          And all you really Do is complain
    A
          Here's your lie, tell it all you…
  • Intro
         
    E|-----------------------------------------------------------------------------|
    B|-----------------------------------------------------------------------------|
    G|----9------9-----9-----------------------------------------------------------|
    D|---9-0----9-0---9-0----------------------------------------------------------|
    A|--7------7-----7-------------------------------------------------------------|
    E|--------8-----7-----6--------------------------------------------------------|
    x1…
  • Em   022000
    G    320033
    D    000232
    
             G                     D
    Well the things that I heard today
             Em                    D
    It's not worth listening or to say
             G                      D
    Struggle…
  • E           
    I'm takin' down on my enemies, cause they're all so fucking useless!
    A bunch of shit talkin' drama queens, and they're all filled with excuses
    I wanna find me a better scene where it's not the same opinion
    I…
  • Intro: G#m B Cm B
    
    G#m
    I'm too tired to be bored
         B         
    I'm too bored to be tired
            Cm
    And the silence is so deafening
               B
    it's like picking at a sore
    G#m
    I'm too mental to Go crazy…
Наверх