Аккорды «Green Jelly»

Green Jelly
Безумные шоумены, американская группа из Сиэтла, играющая в стиле «Комедийный heavy metal/punk», была известна только в очень узких кругах до выхода их культового альбома «Cereal Killer» и их культовой песни Three «Little Pigs» в 1991 году. Как они сами про себя написали: «Это идиотское видео было сделано самими нами, полными отморозками. Каждый может сделать что угодно, когда ему больше нечем заняться…» Three Little Pigs, к примеру, - это потрясающая heavy metal пародия на классическую сказку. Этот… Читать полностью... Безумные шоумены, американская группа из Сиэтла, играющая в стиле «Комедийный heavy metal/punk», была известна только в очень узких кругах до выхода их культового альбома «Cereal Killer» и их культовой песни Three «Little Pigs» в 1991 году. Как они сами про себя написали: «Это идиотское видео было сделано самими нами, полными отморозками. Каждый может сделать что угодно, когда ему больше нечем заняться…» Three Little Pigs, к примеру, - это потрясающая heavy metal пародия на классическую сказку. Этот клип занимал лидирующее место в чартах MTV вплоть до 1993 года, получив MTV music award и Billboard music award. Было продано около 2,5 миллионов синглов с этой песней по всему миру. Однако стоит заметить, что Three Little Pigs, пожалуй, единственная песня с этого альбома, которая могла бы быть принята на MTV в силу цензуры. Помимо этого, я бы отметил также такие «шедевры» как «Misadventures of Shitman», «Trippin’ on XTC», «Electric Harley House Of Love» и другие. В далеком 1981 году, когда деревья были большими, а СССР восстанавливало страну после олимпиады, в маленьком пригороде Буффало - Кенморе, Слабоумный Диктатор (Bill Manspeaker, aka Moronic Dictator) вдруг обнаружил, что может петь. Скот Смит (Scott Smith, aka Ozzy Ozmond), завидующий дятлам, решил что просто обязан стучать. Кэйт Маккорнак (Keith McCormack) и Джим Ласпеза (Jim Laspesa, aka Marshall Stack) забросив ежедневный просмотр диснеевских мультиков, взяли в руки гитары. А Джо, с фамилией Каннизаро (Joe Cannizzaro) и двумя кличками, (aka Nottut LLib, aka Dunderhead) получил в руки бас гитару. К слову сказать, басист Джо, вообще почти не умел играть, а бас гитара, всё-таки, на выступлениях была нужна, поэтому на басуху была нанесена цветная маркировка так, чтобы песни могли быть выучены и сыграны цветом, типа здесь играем красный, зеленый, синий, синий, зеленый. В 1991 году был выпущен альбом Jell-O под названием «Cereal Killer». Не просто альбом, а видеоальбом, состоявший из видеосюжетов на каждую песню. В 1993 году был выпущен уже саунтрэк к видеоальбому. В 1994 году вышел их последний альбом «333» На данный момент, в составе группы Green Jelly приняло участие 204 человека!!! У этой группы вообще «сложная» судьба Изначально они назывались Green Jell-O,но производители одноименного желе наехали на них и название сменили на Green Jelly. В 1993 году Metallica подала иск за то что в песне «Electric Harley House (Of Love)» используются рифы из их «Enter Sadman»,фактически разорив Green Jelly. Дискография: Альбомы 1989 - Triple Live Möther Gööse at Budokan 1991 - Cereal Killer 1993 - Cereal Killer Soundtrack 1994 - 333 2009 - Musick to Insult Your Intelligence By Скрыть...
Популярные аккорды Green Jelly:
алфавиту | просмотрам | случайно
  • tuning: normal
    
    Riff 1:
    E-----------------------------------------------------|
    B-----------------------------------------------------|
    G-----------------------------------------------------|
    D----------------5/7-5/7----------------------2-------|
    A-3-33-6-5-3-5-3-3/5-3/5-3-33-6-5-3-5-3-------2-------|
    E-1-11-4-3-1-3-1---------1-11-4-3-1-3-1-0-3-2-0…
  • Tuning - C-G-C-F-A-D
    
    This is just a basic outline of the song in CGCFAD tuning.I know I'm missing a few 
    otes here and there and I know it's probably not the right tuning, but I play it this way 
    and it sounds fine.  
    
    pause…
  • Pre-Verse:
    
              A-33-0-333-0-333-0-333-0-333-0-333-0-333-0-333-0-333-3
    
              Verse:
    
              A--33-0-333-0-333-0-38877-------------------------------
    
              Chorus:
    
              D-55555555555555553333333322220000----------------------…
  • Tuning: normal
    
    Riff 1: () - either or works, two long notes or five fast ones.
    E-----------------------------
    B-----------------------------
    G-----------------------------
    D-99(999)-55555---------------
    A-77(777)-33333--99(999)-55555
    E----------------77(777)-33333…
  • Tuning: Normal
    
    Riff 1:
    E------------------------
    B------------------------
    G------------------------
    D-----------7------------
    A-7-777-777-5-7-777-777-5
    E-5-555-555---5-555-555-3  x's 4
    
    Riff 2:
    E----------------------------
    B----------------------------
    G----------------------------
    D--------7-------------7-----
    A-7--5-7-5--7-5-6--5-7-5--7-5
    E-5--3-5----5-3-4--3-5----5-3
    
    Riff…
  • Tuning: normal
    
    Riff 1:
    E----------------
    B----------------
    G----------------
    D----------------
    A-77777-10-9-1010
    E-55555-88-7-888- x's 4
    
    Riff 2:   Part A            Part B
    E--------------------------|----------
    B--------------------------|----------
    G--------------------------|----------
    D--------------------------|----------
    A----7----10----9-10-------|-999999999
    E-00-5-00-8---0-7-88…
  • e----------------------------------------------------------------------------
    B- --------------------------------------------------------------------------
    G----------------------------------------------------------------------------
    D----------------------------------------------------------------------------
    A--------------------3--3--------------5----5---------------3-----3----------
    E--0---0----3---5-----------0---3---5-----------0---3---5--------------5---3-…
  • Tuning: normal
    
    Riff 1:
    E--------------------------------------------------------------------------
    B--------------------------------------------------------------------------
    G--------------------------------------------------------------------------
    D-2----2222-----2222-----2222-----2222----2222-----2222-----2222-----2222--
    A-2----2222-5-4-2222-6-5-2222-5-4-2222-7--2222-5-4-2222-6-5-2222-5-4-2222-3
    E-0----0000-3-2-0000-4-3-0000-3-2-0000-5--0000-3-2-0000-4-3-0000-3-2-0000-1…
  • Intro
      A                E                 F#m             E 
    E|----------------|----------------|----------------|----------------| 
    B|--------2-------|----------------|----------------|----------------| 
    G|----2-----2-----|--------1-------|--------2-------|--------1-------|…
  • Tuning: Standard E A D G b e
    
    Opening Riff
    |-----------------------------------------------------------------------------------
    |-----------------------------------------------------------------------------------
    |-----------------------------------------------------------------------------------
    |---------------------------|not…
  • tuning: normal
    
    riff 1:
    E-------------------|
    B-------------------|
    G-------------------|
    D-------------------|
    A-55-5/8-8888-------|
    E-33-3/6-6666 x's 8-|
    
    Riff 2:
    E-------------------------------|
    B-------------------------------|
    G-------------------------------|
    D-------------------------------|
    A----5----8(7)--------5555-8888-|
    E-33-3-66-6(5)…
  • Tuning: normal
    
    Riff 1:
    E-------------------------------------------------------
    B-------------------------------------------------------
    G-------------------------------------------------------
    D-------------------------------------------------------
    A-9-7-5-4/9--------999-777-555-444---5--7--9--5--7--11-9
    E-7-5-3-2/7…
  • Tuning: Normal
    
    Intro: Trem pick
    E---------17/21--
    B-3-5/17---------
    G----------------
    D----------------
    A---------------
    E--------------- Pick slide
    
    Riff 1:
    E---------------------
    B---------------------
    G---------------------
    D-7777777-88-7777777-5
    A-5555555-66-5555555-3
    E---------------------…
  • Intro
    G-----------------
    D-----------------
    A-----------------
    E-2-1-03-2-00-5---
    
    G-------------------
    D-------------------
    A-------------------
    E-2-1-03-2-0-4h2-2--
    Verse
    G-------------------------------
    D-------------------------------
    A-------------------------------
    E-xhx-1-xhx-1-xhx-1-xhx-1-xhx-2-
    Chorus
    F1
    G-----------------
    D-----------------
    A-----------------
    E-2-1-03-2-00-5---
    F2
    G-------------------
    D-------------------
    A-------------------
    E-2-1-03-2-4h2-2----
    Bridge
    P1
    G-----------------------
    D-----------------------
    A-----------------------
    E-3-5-2-0000-111111-2---
    P2
    G-------------------
    D-------------------
    A-------------------
    E-00-1-00-1-00-1----
    
    Order:…
  • B  A  G  F# B  A  G  F# E
    
    /  /  /  /  /  /  /  /  /
    D -2-------2-------2---------------------2-
    A -2-7-----2-7-----2-7-----5---5---4-3---2-
    E -0---7-6-0---7-6-0---7-6-3-0-3-0-2-5-0-0-
  • Tuning: Normal
    
    Riff 1: A                  B
    E----------------|---------------------------------------------------------------------------------
    B----------------|---------------------------------------------------------------------------------
    G----------------|---------------------------------------------------------------------------------
    D-44-44----------|---------------------------------------------------------------------------------
    A-22-22…
  • Tuning: normal
    
    Riff 1:
    E--------------------
    B--------------------
    G--------------------
    D--------------------
    A-7777-1010-7777-1010
    E-5555-8888-5555-8888 
    
    -----------------------------------
    -----------------------------------
    
    This…
  • Tuning: Normal
    
    
    Riff 1:
    E---------
    B---------
    G---------
    D-99-5-6-7
    A-77-3-4-5
    E--------- x's 12
    
    Riff 2:  Guitar 1                                          Guitar 2
    E-----------------------------------------------------|-7--------7------9
    B-----------------------------------------------------|---8---9----8-----
    G-----------------------------------------------------|-----7---------7--…
  • tuning: normal
    
    riff 1:   Guitar 1 Part A                     Part B                       |  Guitar 2
    E------------------------------------------|-------------------------------|-----------------------------|
    B------------------------------------------|-------------------------------|----------8~--6~-------------|
    G------------------------------------------|-------------------------------|-----------------------------|
    D------------------------------------------|---------------------------66--|--55--55---------------------|
    A---5h6---3h4--------5h6---3h4-------------|----5h6---3h4--------5h6---44--|--33--33------------5---5-4--|
    E-5-----5-----3-1--5-----5-----3-2-1…
  • Tuning: normal
    
    Riff 1:  Part A                   Part B
    E-2------------2/7-1-1-1h2--|--2-1h2-2-3-1-------|
    B-2---1---1----2/7-1-1-1h2--|--2-1h2-2-3-1 x's 4-|
    G---2---2---2---------------|--------------------|
    D---------------------------|--------------------|
    A---------------------------|--------------------|
    E---------------------------|--------------------|
    
    Riff…
  • Instrument: Guitar
    Tuning:     D, A, D, G, B, e
    
    intro 
    --------------------------------------
    --------------------------------------
    --------------------------------------
    -2-2-4-4-2-5-4-3---2-2-4-4-2-5-4-3----
    -2-2-4-4-2-5-4-3---2-2-4-4-2-5-4-3----
    -2-2-4-4-2-5-4-3---2-2-4-4-2-5-4-3----
    P.M...............…
Наверх