Аккорды «Green Lizard»

Green Lizard
Green Lizard - группа из города Тилбург (Нидерланды). Основана в 1994 г. и играет рок-н-ролл с примесями гранжа, панка, хардрока и металла. Текущий состав: Jasper Dankaart: Барабаны Roeland Uijtdelligen: Барабаны Remi Tjon Ajong: Вокал, Гитара Brian Tjon Ajong: Гитара Бывшие участники: Bram Van de Berg: Барабаны Jan-Jaap Onverwagt: Бас-гитара Willy Tjon Ajong: Гитара Green Lizard - группа из города Тилбург (Нидерланды). Основана в 1994 г. и играет рок-н-ролл с примесями гранжа, панка, хардрока и металла. Текущий состав: Jasper Dankaart: Барабаны Roeland Uijtdelligen: Барабаны Remi Tjon Ajong: Вокал, Гитара Brian Tjon Ajong: Гитара Бывшие участники: Bram Van de Berg: Барабаны Jan-Jaap Onverwagt: Бас-гитара Willy Tjon Ajong: Гитара Скрыть...
Популярные аккорды Green Lizard:
алфавиту | просмотрам | случайно
  • Guitar 1
    |-----------------------------
    |-----------------------------
    |-333-------------------------
    |-333--333---555--------------
    |-111--333---555--------------
    |------111---333--------------
    
    
    Guitar 2
    |-----------------------------
    |-------7---------------------
    |----5h7----------------------
    |------8----------------------
    |-----------------------------
    |-----------------------------
    
    
    Pre…
  • Part A (0-0:40) (1:36-2:02)
     E-----------------------------------|
     B--4---4----------------------------|
     G----------3---3---4---4---1---1----|
     D----1---1---1---1---1---1---1---1--|
     A-----------------------------------|
    D#-----------------------------------|…
  • Intro   part1  light distortion
    e-----------------------------------------xx----------------
    b-----------------------------------------xx----------------
    g-----------------------------------------xx----------------
    d-----------------------------------------xx----------------
    a-----------------------------------------xx----------------
    d------9-9-7-9-(x2)-----8-8-7-8--(x2)-----xx--7-8-78-9-78-?-
    
    
    Part2…
  • Normal tuning.
    / = quick slide
    
    
    Part A1 (0-0:54) (1:43-2:15)
    E--------------------------------|
    B--------------------------------|
    G--------------------------------|
    D----------5-------------5-7-5---|
    A----4-5-----------4-5-----------|
    E--0-----0-------0-----0---------|…
Наверх