Аккорды «H-blockx»

H-blockx
Последователи "Red hot chili peppers" и "Rage against the machine", немецкие парни из группы "H-Blockx" начали свою деятельность в 1990 году. Эта команда из Мюнстера появилась на свет после того, как на одной из вечеринок познакомились Хеннинг Веланд, Тим Тенамберген, Стефан Хинц и Йоганн-Кристоф Маасс. Название для своего коллектива ребята позаимствовали из ирландского сленга - так там именуются специальные тюремные бараки. После серии выступлений в родном городе музыканты приняли к себе в компанию… Читать полностью... Последователи "Red hot chili peppers" и "Rage against the machine", немецкие парни из группы "H-Blockx" начали свою деятельность в 1990 году. Эта команда из Мюнстера появилась на свет после того, как на одной из вечеринок познакомились Хеннинг Веланд, Тим Тенамберген, Стефан Хинц и Йоганн-Кристоф Маасс. Название для своего коллектива ребята позаимствовали из ирландского сленга - так там именуются специальные тюремные бараки. После серии выступлений в родном городе музыканты приняли к себе в компанию еще одного вокалиста-рэппера - Дэвида Гаппу. В августе 1992-го парни познакомились с владельцем берлинской "Sing sing records", а в марте следующего года заключили контракт с этой фирмой. Первым релизом "H-Blockx" стал сингл "Rising high", оказавшийся весьма популярным в кругах андеграунда. Окрыленные успехом, музыканты занялись подготовкой материала для полноценного альбома, и в августе 1994-го свежеиспеченный блин уже лежал на прилавках. Благодаря активному показу на MTV и VIVA клипа "Move" диск "Time to move" угодил в немецкие чарты, а чуть позже вошел в швейцарские и австрийские хит-парады. В 1995 году продажи альбома приблизились к полумиллионной отметке, причем популярность группы выросла настолько, что она свободно выступала на крупных фестивалях типа "Rock em ring". К концу 1995-го "H-Blockx" выдали еще пару синглов ("Go freaky" и "Little girl"), а выход второго альбома отложили на следующий год. "Discover my soul" поступил в продажу в сентябре, и почти сразу же оказался на седьмой строчке германских чартов. Тираж пластинки устремился к миллиону, группа же тем временем активно гастролировала по Европе. После выпуска еще пары синглов ("Step back", "Gimme more") барабанщик Йоганн-Кристоф Маасс покинул группу из-за проблем со здоровьем, и ударная установка была предоставлена в распоряжение Марко Миннемана. Дебют нового члена команды состоялся на альбоме "Fly eyes", на котором музыканты замесили коктейль из рэпкора, поп-металла и песенок в духе "Bon Jovi". Выход пластинки сопровождался очередными европейскими гастролями. В 1999 году "H-Blockx" приняли участие в создании саундтрека к фильму "Bang boom bang", после чего еще разок сменили барабанщика - теперь эта должность перешла к Стеффену Вилькингу. В обновленном составе группа посетила Америку, где как раз был выпущен "Fly eyes" (первый заокеанский релиз "H-Blockx"). Затем в студийной работе коллектива возник длительный перерыв, который был прерван в 2002 году выходом "Get in the ring". На этом диске музыканты представили слушателям очередную солянку, свалив в одну кучу металл, хип-хоп и панк. А осенью 2002-го команда как бы в компенсацию за долгое ожидание подарила своим фанам концертник с простеньким названием "Live". Уже после этого релиза коллектив покинул Стефан Хинц, а на место бас-гитариста был принят Фабио Трентини. Кроме того, 2002 год можно отметить очередным приездом «H-Blockx» в Россию. 26 мая вместе с «Guano Apes» и ещё двумя молодыми немецкими командами они выступили в Тушино, на международном молодёжном фестивале «Rock Zone Ultra». Осенью этого же года группа выпустила концертный альбом «Live». Уже после этого релиза коллектив покинул Stephan «Gudze» Hinz, а на его место был принят Fabio Trentini. В 2004 году музыканты выпускают альбом «No Excuses», проводят в его поддержку тур по Европе. После этого музыканты разбегаются по сайд-проектам. В том же 2004 году был выпущен сборник «More than a Decade: The Best of H-Blockx». Новый альбом группы появился на прилавках в 2007 году. Он получил название «Open Letter To Friend». В 2008 году в группу вернулся Stephan «Gudze» Hinz, возобновилась работа над новым альбомом «HBLX». Альбом был выпущен в начале 2012 года. Скрыть...
Популярные аккорды H-blockx:
алфавиту | просмотрам | случайно
  • G------------------------------------------------I
    D------------------------------------------------I     
    A-----------------------------------------5---5--I
    E-5-5-5-5-5-5-5-535-5-5-5-5-5-5-535---5----------I
    
    I---------------------------------------------------I
    I---------------------5---------------5-------------I
    I---------5---5---3-------5---5---3-------5---5-5-3-I
    I-5---5---------------------------------------------I…
  • Standard Tuning
    
    
    Intro/Fill
                                         3x
    e--------------------------------------|----------------------|
    B---------5------------5---------------|---------5------------|
    G--------------7-5-7-----5-------------|--------------7-5-4---|
    D--7--7---------------------7----7-5---|--7--7----------------|
    A--------------------------------------|----------------------|
    E--------------------------------------|----------------------|
    
    
    Main…
  • G------------------------------------------------------I
    D-2-------------2--------------------------------------I     
    A----------------------------------------------5---5-5-I
    E-0-------------0----------0---0-0---3---3-3-----------I
    
    I-----------------------------------------------------------I
    I-----------------------------------------------------------I
    I-------------------------------5---5-5---3---3-3-----------I
    I-5---5-5---0---0-0---3---3-3-----------------------5---5-5-I
    
    I---------------------------------I
    I---------------------------------I…
  • Standard Tuning
    
    
    Intro/Fill
    
    e--------------------------|
    B--------------------------|
    G--------------------------|
    D--------------------------|
    A--------------------------|
    E-0--1---3-3-----0-1-3-3---|
    
    
    Main Riff
    
    e--------------------------------------------------------------|
    B--------------------------------------------------------------|
    G--7--7-7--7---7--9-5-7---------------4--4-4--4---4--5-2-4-----|
    D--x--x-x--x---x--x-x-x---------------x--x-x--x---x--x-x-x-5---|
    A--5--5-5--5---5--7-3-5---------------2--2-2--2---2--3-0-2-x---|
    E----------------------------------------------------------3---|
    
    
    Chorus
    
    e-----------------|
    B-----------------|
    G--7-------5------|
    D--7-------5--5---|
    A--5-------3--5---|
    E-------------3---|…
  • Tuning: Standard 4-String Bass (E-A-D-G)
    
    
    Intro part1
    G:--------------------------------------------------------------------------
    D:--------------------------------------------------------------------------
    A:----7--6--5-----------------------------7--6--5---------------------------
    E:-0-----------7--0--3--5--6--5--3--0--0-----------7--0--5--7--3/15---------
    
    Part2
    G:--------------------------------------------------------------------------
    D:--------------------------------------------------------------------------
    A:----7--6--5-----------------------------7--6--5---------------------------
    E:-0-----------7--0--3--5--6--5--3--0--0-----------7--0--3--4--5--6--7------
    
    
    Chorus
    G:--------------------------------------------------------------------------
    D:-----------------------------------------------------------------------5--
    A:-----7--6--5------------7--6--5------------7--6--5------------7--6--5-----
    E:--0-----------5h6----0-----------5h6----0-----------5h6----0--------------
    
    G:--------------------------------------------------------------------------
    D:-----------------------------------------------------------------------5--
    A:-----7--6--5------------7--6--5------------7--6--5------------7--6--5-----
    E:--0-----------5h6----0-----------5h6----0-----------5h6----0--------------
    
    
    Verse…
  • I--------------------7-6-4--------------------------------I
    I--------7-----------------7-5--5-----3-5-----------------I     3x
    I-----------------------------------------5-----5---------I
    I----5-------5------------------------------1-------------I
    
    
    I--------------------------------------5------------------I
    I------------7-5-------------------5-7---7-5--------------I
    I----------------7-5-3-----------------------7------------I
    I-5-5------------------3--5-5------------------5-5--------I
    
    
    I-5-7-5--------------------I
    I-------7-5----------------I…
Наверх