Аккорды «H2o»

H2o
H2O были образованы в Нью-Йорке друзьями детства вокалистом Тоби Морсом (Toby Morse) и гитаристом Расти Пистачио (Rusty Pistachio). Группа начала делать музыку, в которой присутствовали как тяжелые хардкоровые рифы, так и запоминающиеся мелодичные панк вставки. После присоединения к группе басиста Эрика Раиса (Eric Rice), барабанщика Тодда Френда (Todd TF Friend) И брата Тобби, гитариста Тодда. В таком составе группа отправилась в студию, чтобы сделать первую, теперь уже классическую, одноименную… Читать полностью... H2O были образованы в Нью-Йорке друзьями детства вокалистом Тоби Морсом (Toby Morse) и гитаристом Расти Пистачио (Rusty Pistachio). Группа начала делать музыку, в которой присутствовали как тяжелые хардкоровые рифы, так и запоминающиеся мелодичные панк вставки. После присоединения к группе басиста Эрика Раиса (Eric Rice), барабанщика Тодда Френда (Todd TF Friend) И брата Тобби, гитариста Тодда. В таком составе группа отправилась в студию, чтобы сделать первую, теперь уже классическую, одноименную запись H2O. После выпуска альбома группу покинул Эрик, и был заменен Адамом Блейком (Adam Blake). Группа присоединилась к легендарному Epitaph лейблу и взялась за работу над своим вторым по счету релизом Thicker Than The Water, после которого группа отправилась в тур с такими группами как Misfits, Pennywise и The Mighty, Mighty Bosstones. Не успев устать от тура группа села в студию для записи третьего альбома, только в этот раз запись велась под руководством Бретта Гуревича (Brett Guerwitz), альбом получил название Faster Than The World. После записи последовал тур с Saves the Day. После всех туров (почти 6 лет проведенные в студии и в дорогах), без отдыха, подписавшись на MCA группа опять садится в студию в этот раз под руководством Matt Wallace (Faith No More / Maroon 5). Результат - альбом GO и EP All We Want, в который вошли 3 трэка с Go,живом исполнении. Взяв заслуженный отдых, участники начали искать себя в жизни немного в других ролях. Тоби стал отцом Maximus Morse и начал петь в Hazen Street, Тодд отправился в следующий тур, в качестве гитариста Jilliete Lews и Licks, Расти взял на себя обязонности гитариста LIves, Тодд (TF) играл в разных Нью-Йоркских группах, а Адам играл с рокерами Alston. После годового перерыва группа опять отправилась в тур и начались работы над песнями для 5 релиза, но релиз был отложен, поэтому многие новые песни исполнялись на концертах группы. 5 альбом, под говорящим названием Nothing To Prove, увидел свет в 2008 году. —Группа это всего лишь половина всего, или даже меньше, самое важное это общение группы с публикой, мы хотим чтобы они были частью одной большой семьи. Adam Blake — Хардкор не зависит от того что мы едим, пьем, или одеваем. Это путь жизни, музыка, которая посылает сообщение Toby Morse —Вы можете представлять себе кто мы такие читая наши интервью или слушая наши записи, но в действительности чтобы понять нас вам нужно придти на наше шоу и оторваться там по полной вместе с нами Adam Blake Скрыть...
Популярные аккорды H2o:
алфавиту | просмотрам | случайно
  • Riff 1
    
    G|-----------------------------------------------------
    D|-----------------------------------------------------
    A|-------------------------------88-777777777----------
    E|--0000000-2-3333333-77-5555555-----------------------…
  • VERSE
    e|-------------------------------------------------|
    B|-------------------------------------------------|
    G|-----55----------55----------55------2222-55-77--|
    D|-222-55-5555-222-55-5555-222-55-5555-2222-55-77--|
    A|-222-33-5555-222-33-5555-222-33-5555-0000-33-55--|
    E|-000----3333-000----3333-000----3333-------------|
    PM…
  • u = up stoke
    d = down stoke
    x= pick slide
    
    intro 1:  
    guitar 1:d u d u d u d u d u d u d u
    e|-----|-----------------------------|
    B|-----|--play-a-crap-load-of-times--|
    G|-4-4-|-x-4-x-4-x-4-x-4-x-4-x-4-x-4-|
    D|-4-4-|-x-x-x-x-x-x-x-x-x-x-x-x-x-x-|
    A|-2-2-|-x-2-x-2-x-2-x-2-x-2-x-2-x-2-|
    E|-----|-----------------------------|…
  • Play this part 3 times:
    G-------------------------------------------------------|
    D-------------------------------------------------------|
    A--3--3--3-3-3------------------------------------------|
    E--------------3--3--3-3-3--5--5--5-3-1-1-1-1-1-1-1-1---|
    
    
    Then:
    G---------------------------------------------------|
    D---------------------------------------------------|
    A---3--3--3-3-3-------------------------------------|
    E----------------3--3--3-3-3--1--1--1-1-1--0--------|…
  • Intro/Verse
    e|--------------------------------------------------------------------|
    B|--------------------------------------------------------------------|
    G|-----------5-5-----------------5-5----------------------5-5---------|
    D|-7-7--3-3--5-5--5-5---7-7--3-3-5-5--5-5--7-7--3-3--5-5--5-5---------|
    A|-7-7--3-3--3-3--5-5---7-7--3-3-3-3--5-5--7-7--3-3--5-5--3-3---------|
    E|-5-5--1-1-------3-3---5-5--1-1------3-3--5-5--1-1--3-3--------------|
    
    e|--------------------------------------------------------------------|
    B|--------------------------------------------------------------------|
    G|---------5-5-5-5-5--------------------------------------------------|
    D|5-5-5-5--5-5-5-5-5--------------------------------------------------|
    A|5-5-5-5--3-3-3-3-3--------------------------------------------------|
    E|3-3-3-3-------------------------------------------------------------|
    
    chorus
    e|--------------------------------------------------------------------|
    B|-----------------3--3-----------------------------------------------|
    G|-----------------5^-5^----------------------------------------------|
    D|3-3--3-3------------------------------------------------------------|
    A|3-3--3-3------------------------------------------------------------|
    E|1-1--1-1------------------------------------------------------------|
    
    I…
  • OOOOOOHHHHHH..... Thicker than water.....
    G:---------------------------------------------------------------
    D:---------------------------------------------------------------
    A:-7>-9-10-10>-10-9-7-5>-7-5>------------------------------------------------
    E:---------------------------------------------------------------…
  • Intro
    G|--------------|--7-5-4----5--------|
    D|--------------|---------4---7------|
    A|--5-----------|--------------------|
    E|----5--7-0----|--------------------|
    
    
    Verse
    G|---------------------------------|-----------------7-5-------------|
    D|-7-7-7---------------------------|-7-7-7----------------7-5--------|
    A|--------7--7-7-7--5---7--7-7-7---|-------7--7-7-7------------7-5-3-|
    E|--------------------5------------|---------------------------------|
    Play…
  • E|------------------------------------------------------------------------------
    B|------------------------------------------------------------------------------
    G|-----0--------------------------------------4-3-2-1-0-------------------------
    D|---5-------------------------0-0-1-4-3-6-7--------------------------3-2-1-0-1-
    A|-5-----0-5-5-3-3-5-4-6-0h1h2--------------------------------------------------
    E|------------------------------------------------------------------------------
    
    E|------------------------------------------------------------------------------
    B|------------------------------------------------------------------------------
    G|--------------------6-3-0-2-0-11-14-10-0--------------------------------1---2-
    D|---4-4-5-7-0-3-0-4-----------------------0-----------------------------0--0--1
    A|-5-----------------------------------------0-4-2-0-0-0-11h12h13p12p11---------
    E|------------------------------------------------------------------------------
    
    Solo…
  • e|--------------------------------------------|
    B|--------------------------------------------|
    G|-----------------------------------5--------|
    D|-----------------------------------x--------|
    A|--12-slide down until you…
  • G:-----------------------------------------------------
    D:-----------------------------------------------------
    A:-----6--6--------------------------------------------
    E:-0-7--7---7--6-66------------------------------------…
  • x/= pick slide
    ^ = bend 1 full step
    PM= palm mute
    / = silde down
     = silde up
    ()= played by 2nd guitar
    
    intro:
       Bo               Eiio     Do    Co
    e|---------------------------------------|
    B|--------------play-2-times-------------|
    G|---------------------------------------|
    D|-2-2-2-2-2-2-2-2--7-7-7-7--5-5-5-5-5-5-|
    A|-2-2-2-2-2-2-2-2--7-7-7-7--5-5-5-5-5-5-|
    E|-0-0-0-0-0-0-0-0--5-5-5-5--3-3-3-3-3-3-|…
  • INTRO:	Guitar 1:
    e|-----------------------------------------------------------------------------------------|
    B|-----------------------------------------------------------------------------------------|
    G|-----------------------------------------------------------------------------------------|
    D|---5---------------------------5-5-5-5-5-5-5-5-x-----------------------5-5-5-5-5-5-5--5--|
    A|---3---5---3-3-3-3-3-3-3-3-x---3-3-3-3-3-3-3-3-x---3-3-3-3-3-3-3-3-x---3-3-3-3-3-3-3--3--|
    E|-------3---1-1-1-1-1-1-1-1-x-----------------------1-1-1-1-1-1-1-1-x---------------------|
    
    VERSE:
    e|----------------------------------------------------------|
    B|----------------------------------------------------------|
    G|----------------------------------------------------------|…
Наверх