Аккорды «Harvey Danger»

Harvey Danger
Альтернативный поп-квартет Harvey Danger был сформирован в Сиэтле в 1994 г. в Университете штата Вашингтон из студентов Шона Нельсона (вокал), Джеффа Лина (гитара), Аарона Хаффмана (бас) и Эвана Салта (ударные). Вначале они просто подряжались играть кавер-версии своих любимых песен на вечеринках. В 1996 г. они объединились с известным местным производителем Джоном Гудмэнсоном (John Goodmanson) в записи треков, из которых был в конечном счете сформирован в 1997 г. их дебютный альбом. Альтернативный поп-квартет Harvey Danger был сформирован в Сиэтле в 1994 г. в Университете штата Вашингтон из студентов Шона Нельсона (вокал), Джеффа Лина (гитара), Аарона Хаффмана (бас) и Эвана Салта (ударные). Вначале они просто подряжались играть кавер-версии своих любимых песен на вечеринках. В 1996 г. они объединились с известным местным производителем Джоном Гудмэнсоном (John Goodmanson) в записи треков, из которых был в конечном счете сформирован в 1997 г. их дебютный альбом. Скрыть...
Популярные аккорды Harvey Danger:
алфавиту | просмотрам | случайно
  • G--------------------------------------------------------------------
    D--------------------------------------------------------------------
    A-2-2-2-2-2-2-2-22------------------5-5-5-5-5-5-5-55-----------------
    E------------------4-4-4-4-4-4-4-44------------------0-0-0-0-0-0-0-00
    
    
    Lyrics:
    
    rake…
  • Intro: (Make sure to mute the 4th string.)
    
    -----------------------------------------------------------------------
    -----------------------------------------------------------------------
    -7--------9---------11------- 14--------12-------11-------9---------7--
    -----------------------------------------------------------------------
    -5--------7----------9--------12--------10--------9-------7---------5--
    -----------------------------------------------------------------------
    
    -----------------------------------------------------------------------
    -----------------------------------------------------------------------
    -5-------------9----------5-----------9----------7---------------------
    -----------------------------------------------------------------------
    -3-------------7----------3-----------7----------5---------------------
    -----------------------------------------------------------------------
    
    
    Verse…
  • Chords Used
       A  B  D  highE
    E----------------
    B----------------
    G-----4--7----9--
    D--7--4--7----9--
    A--7--2--5----7--
    E--5-------------
    
    
    Intro (pick scrape in):  B  D  A   ( Hoo Hoo ) x4
    
    
    Verse:
             B…
  • Intro: 
        
    E---------------------------------------------3--
    B-----3-----------3------------3--------------0--
    G--2--2--------2--2------------0--------------0--
    D--0--0--------2--2-------0----0---------0-------
    A--0-----------0----------2--------------2-------
    E-------------------------3--------------3-------
    
    
    1st…
  • Intro Bass Solo:
    G-------------------------------------------|---------------------------------------|
    D-----------------8--8--8--8--------6-------|----------------8--8--8--8--9--9-8--|  (repeat)
    A---9--9--7--7---------------7--7-----------|---9--9--7--7-------------------------|
    E-------------------------------------------|----------------------------------------
    
    
    Verse:…
Наверх