Аккорды «Hell Is For Heroes»

Hell Is For Heroes
Новые апологеты метал-панка, гуру пост-хардкора, реинкарнация Курта Кобейна — каких только ярлыков ни наклеивали критики на Hell is for Heroes, уже больше десяти лет воюющих за звание настоящих идолов лондонского андеграунда. Как любая самобытная команда, Hell is for Heroes не поддаются четкой идентификации. Единственное, что о них ясно — они независимы, чертовски талантливы, и об их живых выступлениях ходят легенды. История лондонского ансамбля берет начало в 2000 году, когда два бывших участника… Читать полностью... Новые апологеты метал-панка, гуру пост-хардкора, реинкарнация Курта Кобейна — каких только ярлыков ни наклеивали критики на Hell is for Heroes, уже больше десяти лет воюющих за звание настоящих идолов лондонского андеграунда. Как любая самобытная команда, Hell is for Heroes не поддаются четкой идентификации. Единственное, что о них ясно — они независимы, чертовски талантливы, и об их живых выступлениях ходят легенды. История лондонского ансамбля берет начало в 2000 году, когда два бывших участника команды Symposium, гитарист Уилл МакГонагл и ударник Джо Берч, познакомились в одном из лондонских баров с вокалистом Джастином Шлосбергом. В то время Уилл и Джо старательно залечивали изрядными порциями алкоголя душевные раны и параллельно размышляли о создании новой группы. Название Hell Is For Heroes уже было — актуально и в гармонии с душевным настроем. Джастину, хорошо вписавшемуся в теплую «алкогольную» команду, предложили занять место у микрофона. Новыми гитаристом и басистом стали старые школьные приятели Уилла — Том О’Донохью и Джон Файндли. Через год репетиций и проб был выпущен дебютный демо Sick/Happy и началась активная концертная деятельность. Однако ожидание того стоило. Для избалованной публики западного Лондона агрессивные «герои» стали громом посреди ясного неба брит-попа. Уже к концу года альтернативные интернет-порталы захлебывались восторженными отзывами, сравнивая ребят с Deftones и Fugazi, отдавая должное мелодике, которая нет-нет, да и промелькнет среди наваристых риффов. На группу тут же налепили ярлык «британских Limp Bizkit». Причем, сравнивая команды, критики единодушно отдавали предпочтение «героям». Годом позже на EMI вышел дебютный альбом The Neon Handshake, впечатливший и публику, и капризную музыкальную критику. Группа отправляется в многочисленные успешные турне по Великобритании и Европе, выпускается в США. Парням удалось засветиться на многих крупных фестивалях, а синглы регулярно попадают в первую двадцатку британских чартов. Но HIFH оказались истыми «альтернативщиками» по духу и совести. Они разрывают контракт с EMI незадолго до выпуска второго диска. По словам вокалиста Джастина Шлосберга, его и сегодня мучает совесть — за подписание контракта с мажорным лейблом. Все, что интересует эту лондонскую пятерку — быть крутой live рок-группой и не по-детски жечь на сцене. Пластинки команды до сих пор выглядят как чистопородный hand made — на диске Transmit Disrupt, к примеру, можно найти треки без названия. Недавно Hell is for Heroes издали третий альбом, назвав его очень минималистично — Hell is for Heroes. В этом «послании» к общественности сообщается, что существует музыка, способная усладить слух тех, кто в девяностые заслушивался неометаллом, потом впал в депрессию, найдя утешение в эмо, и уже отчаялся услышать что-нибудь стоящее. Что бы кто ни говорил, Hell is for Heroes — одна из тех команд, которые вживую звучат на порядок мощнее, устраивая на концертах адское пекло. И кажется, большего им от жизни и не нужно. Скрыть...
Популярные аккорды Hell Is For Heroes:
алфавиту | просмотрам | случайно
  • Drop D Tuning (like virtually all of their songs)
    
    Verse: (method 1 (easier if you've got undisciplined fingers)
    TEN is the tenth fret, and TWELVE is twelfth to stop confusion
    h means hammer on
    / means slide down
    
    G-----------------------------------…
  • {NOTE: Both Tom and Will's guitars are almost always tuned to DADGBE ('drop D' tuning)!}
    
    
    e|-------------------|-------------------|-------------------|-------------------|
    B|-------------------|-------------------|-------------------|-------------------|
    G|-------------------|-------------------|-------------------|-------------------|
    D|-----5-----5-----5-|-----4-----4-----4-|-----5-----5-----5-|-----4-----4-----4-|
    A|---5-----5-----5---|---4-----4-----4---|---5-----5-----5---|---4-----4-----4---|
    D|-5-----5-----5-----|-4-----4-----4-----|-5-----5-----5-----|-4-----4-----4-----|
    (these…
  • Intro (Guitar 2 w/ Distortion) x1
    E|---------|
    B|-12------|
    G|-15b(17)-|
    D|---------|
    A|---------|
    D|---------|
    
    Chorus (Guitar 1 w/ Distortion) x2
    E|-----------------------------------------------------------------|
    B|-----------------------------------------------------------------|
    G|-2-2-2-2-2-2-2-2-2-2-2-2-2-2-2-2---------------------------------|
    D|-2-2-2-2-2-2-2-2-2-2-2-2-2-2-2-2-4-4-4-4-4-4-4-4-4-4-4-4-4-4-4-4-|
    A|-0-0-0-0-0-0-0-0-0-0-0-0-0-0-0-0-4-4-4-4-4-4-4-4-4-4-4-4-4-4-4-4-|
    D|---------------------------------4-4-4-4-4-4-4-4-4-4-4-4-4-4-4-4-|
    
    Chorus…
  • Play them all through quickly and the right number of times (16 i think)
    
    -0-----3 slide 2----------7--------9---11---12--|
    ----0--------------0----------0-----------------|
    ------------------------------------------------|
    ------------------------------------------------|
    ------------------------------------------------|
    ------------------------------------------------|…
  • {NOTE: Both Tom and Will's guitars are almost always tuned to DADGBE ('drop D' tuning)!}
    
     [on the album this has a modulation effect on it]
    e|-----------------|-----------------|
    B|-----------------|-----------------|
    G|-2-4-4-4-2-4-4-4-|-2-4-4-4-2-4-4-4-|
    D|-0-x-x-x-0-x-x-x-|-0-2-2-2-0-2-2-2-|
    A|-0-2-2-2-0-2-2-2-|-0-2-2-2-0-2-2-2-|
    D|-----------------|-----------------|
    
    
    e|-----------------|-----------------|-----------------|-----------------|
    B|-----------------|-----------------|-----------------|-----------------|
    G|-4-4-4-4-4-4-4-4-|-4-4-4-4-4-4-4-4-|-7-7--7-7--7-7---|-7-7--7-7--7-7---|
    D|-x-x-x-x-x-x-x-x-|-x-x-x-x-x-x-x-x-|-5-5--5-5--5-5---|-5-5--5-5--5-5---|
    A|-2-2-2-2-2-2-2-2-|-2-2-2-2-2-2-2-2-|-5-5--5-5--5-5---|-5-5--5-5--5-5---|
    D|-----------------|-----------------|-5-5--5-5--5-5---|-5-5--5-5--5-5---|
    
    
    e|-----------------|-----------------|-----------------|-----------------|
    B|-----------------|-----------------|-----------------|-----------------|
    G|-4-4-4-4---------|-----------------|-7-7--7-7--7-7---|-7-7--7-7--7-7---|
    D|-x-x-x-x---------|-----------------|-5-5--5-5--5-5---|-5-5--5-5--5-5---|
    A|-2-2-2-2-(STOP)--|-----------------|-5-5--5-5--5-5---|-5-5--5-5--5-5---|
    D|-----------------|-----------------|-5-5--5-5--5-5---|-5-5--5-5--5-5---|…
  • Tuning:DADGBe
    Intro (as i am very lazy so you can guess how many times to play this as well
    as everything else)
    
    e|---------------------------------------------------------------------------|
    B|---------------------------------------------------------------------------|
    G|--10-10-10-10-10-9-9-9-9-9-------------------------------------------------|
    D|--0--0--0--0--0--0-0-0-0-0-10-10-10-10-10-9-9-9-9-9------------------------|
    A|--0--0--0--0--0--0-0-0-0-0-0--0--0--0--0--0-0-0-0-0------------------------|
    D|---------------------------0--0--0--0--0--0-0-0-0-0------------------------|
    
    Verse
    e|---------------------------------------------------------------------------|
    B|---------------------------------------------------------------------------|
    G|-77777-77777-77777-77777-77777-77777-77777-77777-77777-77777-77777-77777---|
    D|-77777-77777-77777-77777-77777-77777-77777-77777-77777-77777-77777-77777---|
    A|-55555-55555-55555-55555-55555-55555-55555-55555-55555-55555-55555-55555---|
    D|---------------------------------------------------------------------------|
    
    
    e|---------------------------------------------------------------------------|
    B|---------------------------------------------------------------------------|
    G|--77777-77777-55555-44444-77777-77777-5xxxx-4xxxxx-------------------------|
    D|--77777-77777-55555-44444-77777-77777-5xxxx-4xxxxx-------------------------|
    A|--55555-55555-33333-22222-55555-55555-3xxxx-2xxxxx-------------------------|
    D|---------------------------------------------------------------------------|…
  • Intro
    e|--0-------0-------0-------------------------------|- 
    b|--13(x32)-12(x16)-13(x16)-------------------------| |
    g|--x-------x-------x-------------------------------|  }> Continue The 2nd & 3rd
    D|--x-------x-------x-------------------------------|…
  • Tuning: Drop-D 
    
    INTRO
    Clean with echo
    
    
    e|--------------- 
    B|---------------
    G|---------------
    D|-6-7-9-(9)s14--
    A|---------------
    D|---------------
    
    e|------------------- 
    B|-------------------
    G|-------------------
    D|-6-7-9-(9)s14-12-11
    A|-------------------
    D|-------------------
    
    The…
  • Tuning:Dadgbe
    
    Guitar 1 riff 1 (Will i think )
    e|---------------------------------------------------------------------------|
    B|---------------------------------------------------------------------------|
    G|---------------------------------------------------------------------------|
    D|--------17-------17-------17---------14------14----14----------------------|
    A|-----15-------15------------------15------15-------------------------------|
    D|---15------15---------15--------0--------0-------0-------------------------|
    
    Both…
  • Verse (Guitar 2) x8
    E|-----------------------------------------------------------------|
    B|-----------------------------------------------------------------|
    G|-7-7-7-7-7-7-7-7-7-7-7-7-7-7-7-7---------------------------------|
    D|---------------------------------4-4-4-4-4-4-4-4-4-4-4-4-4-4-4-4-|
    A|-----------------------------------------------------------------|
    D|-----------------------------------------------------------------|…
  • {NOTE: Both Tom and Will's guitars are almost always tuned to DADGBE ('drop D' tuning)!}
    
    
    [Will's part] - (played twice)
    e|-2------2-2-|-----------|-2------2-2-|-----------|
    B|-3------3-3-|-----------|-3------3-3-|-----------|
    G|-2------2-2-|-4---------|-2------2-2-|-4---------|
    D|-0--x-x-0-0-|-4--5--5>7-|-0--x-x-0-0-|-4--5--5>7-|
    A|-0--x-x-0-0-|-2--5--5>7-|-0--x-x-0-0-|-2--5--5>7-|
    D|-0--x-x-0-0-|----5--5>7-|-0--x-x-0-0-|----5--5>7-|
    
    [Tom's…
  • {NOTE: Both Tom and Will's guitars are almost always tuned to DADGBE ('drop D' tuning)!}
    
    
    {this riff continues all the way through until the bridge}
    e|---------5-5-5-5-|---------1-1-1-1-|-2-2-2-2-2-2-2-1-|-----------------|
    B|-2-2-2-2---------|-----------------|-----------------|-2-2-2-2-2-3-2-2-|
    G|-----------------|-1-1-1-1---------|-----------------|-----------------|
    D|-----------------|-----------------|-----------------|-----------------|
    A|-----------------|-----------------|-----------------|-----------------|
    D|-----------------|-----------------|-----------------|-----------------|
    
    
    e|-----------------|-----------------|-----------------|-----------------|
    B|-----------------|-----------------|-----------------|-----------------|
    G|-2-2-2-2-2-2-2-2-|-6-6-6-6-6-6-6-6-|-2-2-2-2-2-2-2-2-|-2-2-2-2-2-2-2-2-|
    D|-2-2-2-2-2-2-2-2-|-6-6-6-6-6-6-6-6-|-0-0-0-0-0-0-0-0-|-0-0-0-0-0-0-0-0-|
    A|-0-0-0-0-0-0-0-0-|-4-4-4-4-4-4-4-4-|-0-0-0-0-0-0-0-0-|-0-0-0-0-0-0-0-0-|
    D|-----------------|-----------------|-0-0-0-0-0-0-0-0-|-0-0-0-0-0-0-0-0-|…
  • Tuning:DADGBe
    
    Main riff (Will)
    
    e|10-7-0-------10-7-0--------10-7-0-------------------------------------------------------------|
    B|------10-7-0--------10-7-0---------10-7-0-10-7-0-8-7-0-10-7-0-8-7-0-10-7-0-8-7-0-10-7-0-8-7-0-|
    G|----------------------------------------------------------------------------------------------|
    D|----------------------------------------------------------------------------------------------|
    A|----------------------------------------------------------------------------------------------|
    D|----------------------------------------------------------------------------------------------|
    
    Chorus…
  • 1. Intro/Main riff.
    e-|--------------------------------------------------------------|
    B-|--------------------------------------------------------------|
    G-|--------------------------------------------------------------|
    D-|------11----11--------11----11--------11----9---------11----9-|
    A-|0-0-0-0-0-0-0---0-0-0-0-0-0-0---------9-----9---------9-----9-|
    D-|--------------------------------0-0-0---0-0-----0-0-0---0-0---|…
  • Tuning: DADGBe
    
    The rest of the song I will work on and post asap
    
    e|---------------------------------------------------------------------------|
    B|---------------------------------------------------------------------------|
    G|-999999991010101012121212--------------------------------------------------|
    D|-------------------------12121212121212121212121212121212\8888888888888888-|
    A|---------------------------------------------------------------------------|
    D|---------------------------------------------------------------------------|
    
    e|-----------------------------------------------------------------|
    B|-----------------------------------------------------------------|
    G|-----------------------------------------------------------------|
    D|-8---------------0---------------5---------------0---------------|
    A|-8---------------0---------------5---------------0---------------|
    D|-8---------------0---------------5---------------0---------------|
    
    e|------------------------------------------------------------------|
    B|------------------------------------------------------------------|
    G|------------------------------------------------------------------|
    D|-8888888888888888000000000000000055555555555555550000000000000000-|
    A|-8888888888888888000000000000000055555555555555550000000000000000-|
    D|-8888888888888888000000000000000055555555555555550000000000000000-|
    
    e|-------------------------------------------------------------------------|
    B|-------------------------------------------------------------------------|
    G|-/777777779999101010100000000000000h2222---------------------------------|
    D|----------------------------------------33333333333333332222222222222222-|
    A|-------------------------------------------------------------------------|
    D|-------------------------------------------------------------------------|
    
    e|--------------------------------------------------|
    B|--------------------------------------------------|
    G|--------------------------------------------------|
    D|-000000000000000088888888888888885555555555555555-|
    A|-000000000000000088888888888888885555555555555555-|
    D|-000000000000000088888888888888885555555555555555-|
    
    
    
    
    |…
  • {NOTE: Both Tom and Will's guitars are almost always tuned to DADGBE ('drop D' tuning)!}
    
    
    e|------------------|------------------|
    B|------------------|------------------|
    G|------------------|------------------|
    D|------------------|------------------|
    A|---7>9---9>10---7-|---7>9---9>10---7-|
    D|-0-----0------0---|-0-----0------0---|
    
    
    
    [Will…
  • TUNING: Drop D (D A D G B e)
    NOTES: Two guitarists in HIFH, both tuned down to Drop D. Easy to play, listen to song
    for timings and rhythm.
    
    
    INTRO 
    
    e----------------------| 
    B----------------------| 
    G----------------------|…
  • Tuning: DADGBe
    
    Intro (Bass arranged for guitar)
    e|-----------------------------------------------------------------|
    B|-----------------------------------------------------------------|
    G|-----------------------------------------------------------------|
    D|-----------------------------------------------------------------|
    A|-0-0-0-0-0-0-0-0-3-3-3-3-3-3-3-3-0-0-0-0-0-0-0-0---------2-2-3-3-|
    D|-------------------------------------------------2-2-2-2---------|
    
    e|-----------------------------------------------------------------|
    B|-----------------------------------------------------------------|
    G|-----------------------------------------------------------------|
    D|---------------------------------------------------------2-2-2-2-|
    A|-0-0-0-0-0-0-0-0-3-3-3-3-3-3-3-3-0-0-0-0-0-0-0-0-----------------|
    D|-------------------------------------------------2-2-2-2---------|
    
    (taste…
  • drop d-tuning
    
    / = slide
    # = tremolo pick
    
    intro (clean)
    
    e|---------------------------------------------------------------------------|
    B|---------------------------------------------------------------------------|
    G|---------------------------------------------------------------------------|
    D|---12------12--12--12--12--12--12--12----12--12--12--12--12--12------------|
    A|---10--X---10--10--10--10--10--10---9--X--9---9---9---9---9---9--9----9--9-
    d|-----------------------------------------------------------------9-X--9--9-|
    
    e|---------------------------------------------------------------------------|
    B|---------------------------------------------------------------------------|
    G|---------------------------------------------------------------------------|
    D|---------------------------------------------------------------------------|
    A|---9--9--9--9---10-----10--10--10--10--10--10------------------------------|
    d|---9--9--9--9---10--X--10--10--10--10--10--10-----however…
  • Intro:
    
    e|--x--x--x-x-x---x--x--x-x-x---x--x--x-x--x---x--x--x--x-----|
    B|--x--x--x-x-x---x--x--x-x-x---x--x--x-x--x---x--x--x--x-----|
    G|--12-12-x-x-12--12-12-x-x-12--12-12-x-x--12--12-12-12-12----|
    D|--10-10-x-x-10--10-10-x-x-10--10-10-x-x--10--10-10-10-10----|
    A|--8--8--x-x-8---8--8--x-x-8---8--8--x-x--8---8--8--8--8-----|
    D|--x--x--x-x-x---x--x--x-x-x---x--x--x-x--x---x--x--x--x-----|
    
    Verese…
  • Tuning:DADGBE (Drop-D)
    
    INTRO:
    
    e|----------------------------------------------|
    B|--------10--------10--------10----------------|
    G|---11--------11--------11--------11---11---11-|
    D|-9----9----9----9----9----9----9----9----0----|
    A|----------------------------------------------|
    D|----------------------------------------------|
    
    e|---9--------9--------9-----------|
    B|---------------------------------|
    G|-------11-------11-------11---11-|
    D|-0---0----0---0----0---0----0----|
    A|---------------------------------|
    D|---------------------------------|…
  • {NOTE: Both Tom and Will's guitars are almost always tuned to DADGBE ('drop D' tuning)!}
    
    
    [Will solo]
    e|---------------------|------------------------------|
    B|---------------------|------------------------------|
    G|---------------------|------------------------------|
    D|-8-8--8-8--8-8-8-8-8-|-10-10--10-10--10-10-10-10-10-|
    A|-6-6--6-6--6-6-6-6-6-|--8--8---8--8---8--8--8--8--8-|
    D|-6-6--6-6--6-6-6-6-6-|--8--8---8--8---8--8--8--8--8-|
    
    e|-----------------------|-----------------------|
    B|-----------------------|-----------------------|
    G|-----------------------|-----------------------|
    D|-8-8-8--7-7--7-7-7-7-7-|-7-7-7--5-5--5-5-5-5-5-|
    A|-0-0-0--0-0--0-0-0-0-0-|-5-5-5--5-5--5-5-5-5-5-|
    D|-0-0-0--0-0--0-0-0-0-0-|-5-5-5--5-5--5-5-5-5-5-|
    
    
    [Will's…
Наверх