Аккорды «Henry Mancini»

Henry Mancini
Генри Манчини (англ. Henry Mancini, псевдоним; настоящее имя — Энрико Никола Манчини, англ. Enrico Nicola Mancini; 16 апреля 1924, Кливленд, штат Огайо — 14 июня 1994, Беверли Хиллз, штат Калифорния) — знаменитый американский дирижёр и кинокомпозитор. Написал музыку почти к 500 фильмам и телесериалам, выпустил 50 альбомов, получил за свою музыку 4 премии «Оскар», 2 «Эмми» и целых 20 «Грэмми», включая награду «За жизненный вклад» (англ. «Lifetime Achievement», 1995). Родился в Кливленде 16 апреля… Читать полностью... Генри Манчини (англ. Henry Mancini, псевдоним; настоящее имя — Энрико Никола Манчини, англ. Enrico Nicola Mancini; 16 апреля 1924, Кливленд, штат Огайо — 14 июня 1994, Беверли Хиллз, штат Калифорния) — знаменитый американский дирижёр и кинокомпозитор. Написал музыку почти к 500 фильмам и телесериалам, выпустил 50 альбомов, получил за свою музыку 4 премии «Оскар», 2 «Эмми» и целых 20 «Грэмми», включая награду «За жизненный вклад» (англ. «Lifetime Achievement», 1995). Родился в Кливленде 16 апреля 1924 года. Вырос в Питтсбурге (штат Пенсильвания). Был завербован в армию во время Второй мировой войны, но из пехоты был переведён в армейский ансамбль. Писать музыку для кино начал в 1952. Хотя большинство его произведений можно назвать ненавязчивыми фоновыми мелодиями, Манчини был способен написать и очень красивую и очень масштабную музыку, что не раз доказывал. Одна из его самых известных мелодий — «Moon River» — была исполнена Одри Хепбёрн в фильме «Завтрак у Тиффани», после чего выиграла «Оскар» за лучшую песню и возглавила Billboard Hot 100. Самой коммерчески успешной его записью была тема к фильму «Розовая пантера» (1964), которая известна в огромном количестве аранжировок и интерпретаций. Умер в Беверли Хиллз (штат Калифорния) от рака поджелудочной железы в 1994 году в возрасте 70 лет. Скрыть...
Популярные аккорды Henry Mancini:
алфавиту | просмотрам | случайно
  • |---------------------------------------------------------------------
    |---------------------------------13-12-------12-11vvv---10p8---------
    |------8-9---11-12---8-9---11-12---------9-12-----------------9-7-9---
    |---------------------------------------------------------------------
    |---------------------------------------------------------------------
    |---------------------------------------------------------------------
    |…
  • El асоmрасаmiеnто de guitarra seria:
    
    --------------------------------------------------------------------------|
    --------------------------------------------------------------------------|
    --------------------------------------------------------------------------|
    -------22-11-00-----------------------------------------------------------|
    ----------------22-11-00--------------------------------------------------|
    -0-0----------------------------------------------------------------------|
    
    
    Luego…
Наверх