Аккорды «Heroes Del Silencio»

Heroes Del Silencio
В 90-х годах группа была очень популярна как в Испании, так и в других странах, давала концерты в Германии, Бельгии, Швейцарии и в странах Америки. Группа распалась в 1996-м году, выпустив десять номерных альбомов, а в 2007-м — собралась вновь, и приняла участие в мировом туре из десяти концертов, приуроченном к двадцатилетней годовщине дебютного альбома. Участники Энрике Бунбури (Enrique Bunbury) — вокал, акустическая гитара, губная гармоника Хуан Бальдивиа (Juan Valdivia) — соло-гитара Хоакин… Читать полностью... В 90-х годах группа была очень популярна как в Испании, так и в других странах, давала концерты в Германии, Бельгии, Швейцарии и в странах Америки. Группа распалась в 1996-м году, выпустив десять номерных альбомов, а в 2007-м — собралась вновь, и приняла участие в мировом туре из десяти концертов, приуроченном к двадцатилетней годовщине дебютного альбома. Участники Энрике Бунбури (Enrique Bunbury) — вокал, акустическая гитара, губная гармоника Хуан Бальдивиа (Juan Valdivia) — соло-гитара Хоакин Кардьель (Joaquin Cardiel) — бас-гитара Педро Андреу (Pedro Andreu) — ударные Алан Богуславски (Alan Boguslavsky) — гитара (1993-1996) Гонсало Бальдивиа (Gonzalo Valdivia) — гитара (2007) Скрыть...
Популярные аккорды Heroes Del Silencio:
алфавиту | просмотрам | случайно
  • Bagpipe Intro:
    
    
    Guitar Intro:(play acoustic)
    
       A                C         F?
    -----------------------------------|
    -------2h3p2------------------1----|
    ----2--------2-------0-------3-3---|
    ---2-2--------2-----2-------2---2--|…
  • Introduction:
    
       Em                   G   Em   G  Em   G  Em   G
    |-------------------|
    |-------------------|
    |--0----------------|
    |----4--2-----------|
    |-------------------|
    |-------------------|
    
    
    VERSE I
    
    Em…
  • [a]Y me he enredado siempre entre algas
    [G]Marania contra los dedos
    [a]Cierras la madeja con
    [G]El fastidio del destino
    Y el mor[F]disco lo dan otros
    En[a]cias ensangrentadas
    Y mi[F]radas de criminales
    A gran[G]des rasgos…
  • |-----------------------------------------------------------
    |----------------------------6-6-5---5h6p5------------------
    |---------5-7-4-5-5p4/2-5-4--------7------------------------
    |-7---5-7----------------------------------7-7-5---5h7p5----
    |---7--------------------------------------------7-------7--
    |-----------------------------------------------------------
    
    |-----------------------------------------------------------
    |------------------------------8-6-5------------------------
    |---------5-7-5-7-7p5/4-7-5----------5-7-5h7p5p4-7-5--------
    |-7---5-7--------------------7-----------------------7-7----
    |---7-------------------------------------------------------
    |-----------------------------------------------------------
    
    |-----------------------------------------------------------
    |----------------------------6-6-5---5h6p5------------------
    |---------5-7-4-5-5p4/2-5-4--------7------------------------
    |-7---5-7----------------------------------7-7-5---5h7p5----
    |---7--------------------------------------------7-------7--
    |-----------------------------------------------------------
    
    |-----------------------------------------------------------
    |----------------------------/7777/9999/11111111-----------
    |---------7-7--5-7-7p5p4-7-5-/6666/8888/10101010-----------
    |-7---5-7---------------------------------------------------
    |---7-------------------------------------------------------
    |-----------------------------------------------------------
    
    |------------------------------------------------------------------------------------------
    |-13-13b15r13----------13b15r13----------13-13b15r13----------13-13b16r13------------------
    |-------------14-12-14----------14-12-14-------------14-12-14-------------14-12-14---------
    |------------------------------------------------------------------------------------------
    |------------------------------------------------------------------------------------------
    |------------------------------------------------------------------------------------------
    
    -------------------------------------------------------------------------------------------
    --15b17b15----------15b17r15----------17b18r17----------20b22------------------------------
    -----------17-14-17----------17-14-17----------19-17-19------------------------------------
    -------------------------------------------------------------------------------------------
    -------------------------------------------------------------------------------------------
    -------------------------------------------------------------------------------------------
    
    |------15-------15----------------------------------------------------------------------------------------
    |15b17----15b17-----17r15----15-17-17p15----15------------------------------------------------------------
    |-------------------------17------------p17----17-14-17-14------------------------12-10-9-----------------
    |-----------------------------------------------------------17-14-17-14-12-10-12---------p12p10-----------
    |-----------------------------------------------------------------------------------------------12--------
    |---------------------------------------------------------------------------------------------------------
    
    |---------------------------------------------------------------------------------------------------------
    |13p12---13p12---13p12---13p12---12p10---12p10---12p10---12p10---10p8---10p8---10p8---10p8----8/10-10--10-
    |-----p14-----p14-----p14-----p14-----p12-----p12-----p12-----p12----p10----p10----p10----p10-7/-9--9---9-
    |---------------------------------------------------------------------------------------------------------
    |---------------------------------------------------------------------------------------------------------
    |---------------------------------------------------------------------------------------------------------
    
    |---------------------------------------------------------------------------------------------------------
    |13p12---13p12---13p12---13p12---12p10---12p10---12p10---12p10---10p8---10p8---10p8---10p8----8/10-10--10-
    |-----p14-----p14-----p14-----p14-----p12-----p12-----p12-----p12----p10----p10----p10----p10-7/-9--9---9-
    |---------------------------------------------------------------------------------------------------------
    |---------------------------------------------------------------------------------------------------------
    |---------------------------------------------------------------------------------------------------------…
  • INTRO [ Gm D# D Gm ]
    
                         D#  D
    Siempre en la oscuridad
                        Gm
    la voz no tiene sentido
                       D#  D
    el silencio lo es todo
                          Gm   Bm
    h?roe en su propio olvido…
  • Gm
    Es el opio la flor de la pereza
            Dm
    hasta que llego a ser solo existencia
        F
    el humo de leche muge lento
         D7
    extendiendo el sabor del universo
         Gm
    el que nada hace nada teme
         Dm
    de terrenal sabras…
  • intro
    e|--------------|-----------12---|12----1312------|
    B|--------------|-------------10-|--10-------------|
    G|--------------|----------------|-----------------|
    D|--------------|----------------|-----------------|
    A|--------------|----------------|-----------------|
    E|-5--5--5--5-5-|--5-5-5-5--5-5--|-----------------|
    
    Main…
  • Em
    He o?do que la noche
    C
    Es toda magia
    D                            Bm
    Y que un duende te invita a so?ar
    Em
    Y se que ?ltimamente
    C
    Apenas he parado
    D                         Bm
    Y tengo la impresi?n de divagar.
    
    
    Em
    Amanece…
  • INTRO [ A ]
          [ Bm Em A ] (3)  [ Bm F#m E ]
    
    
             Bm           G     A
    No me importa lo que pienses
         Bm                G  A
    sin duda no me entero ya
            Bm            G
    tus costumbres se me pierden
    A…
  • Tuning:EADGBe
    
    INTRO:
    
    Echo (delay = 40, decay = 4)
    
       Bm                     G        Bm                     A        Bm
    
    e|-2------2-|----|-2------3-|----|-2------2-|----|-2------5-|----|-2--2--2---2-|
    B|-3------3-|----|-3------3-|----|-3------3-|----|-3------5-|----|-3--3--3---3-|
    G|-4------4-|----|-4------0-|----|-4------4-|----|-4------2-|----|-4--4--4---4-|
    D|-4------4-|----|-4------0-|----|-4------4-|----|-4------2-|----|-4--4--4---4-|
    A|----------|----|----------|----|----------|----|----------|----|-------------|
    E|----------|----|----------|----|----------|----|----------|----|-------------|…
  • (Intro)
    E|----------------------------------------------------|
    B|--------------------------2-------5-----------------|
    G|--12p10p9---7---------2-4----6/7-----7-6-4---4/6----|
    D|----------9---9---2/4----------------------7-----7--|
    A|--------------7-------------------------------------|
    E|----------------------------------------------------|
    
    (1er…
Наверх