Аккорды «Hi-standard»

Hi-standard
Hi-STANDARD был главной движущей силой в японской андеграунд мьюзик сцене. Их энергетический и мелодичный подход к написанию песен породил бешеное количество последователей и почитателей, толпы которых разрастались со страшной скоростью с Дальнего Востока до самых отдаленных уголков планеты. Hi-STANDARD смешивает привязчивые в хорошем смысле мелодии со скоростью, гармонией, и энергией. Если можно с чем-то провести параллели, то наверное это японский гибрид Green Day, NOFX, Toy Dolls, Pennywise,… Читать полностью... Hi-STANDARD был главной движущей силой в японской андеграунд мьюзик сцене. Их энергетический и мелодичный подход к написанию песен породил бешеное количество последователей и почитателей, толпы которых разрастались со страшной скоростью с Дальнего Востока до самых отдаленных уголков планеты. Hi-STANDARD смешивает привязчивые в хорошем смысле мелодии со скоростью, гармонией, и энергией. Если можно с чем-то провести параллели, то наверное это японский гибрид Green Day, NOFX, Toy Dolls, Pennywise, но их саунд уникальный, единственный и неповторимый и никакой другой. У них уже три полноценных альбома на FAT и они все всыпают перца и всыпают! Hi-STANDARD была основана в 1991 гитаристом\вокалистом Ken Yokoyama, басистом\вокалистом Akihiro Nanba, и драмером Akira Tsuneoka. Группа сделала себе имя в родной Японии в начале 1992, когда чуваки выпустили Growing Up на Toy's Factory Records. Вскоре на них обратил внимание владелец Fat Wreck Chords - Fat Mike, который залицензировал альбом для продаж в Америке. Growing Up, фантастическое сочетание пофигизма и впечатляющего таланта, было восхваленом многими американскими критиками. Группа ответила усиленными промоушн турами и выпуском пулеметной очереди 7" синглов, включая сплит сингл с дружбанами Fat - Wizo. Летом 1997, группа выпустила Angry Fist, второй полноценный альбом. Несмотря на то, что Hi-Standard решила поменять пофигизм Growing Up на забавный злобный юмор, музыка в принципе осталась такой же: дружелюбная, талантливая и понятная. Большей частью 1997 и 1998 было проведено в турах по Америке с NOFX и Jersey. В начале 1999, группа вернулась к Toy's Factory, чтобы записать свой третий альбом, Making the Road. Скрыть...
Популярные аккорды Hi-standard:
алфавиту | просмотрам | случайно
  • Tuning: Standard (E A D G B E)
    
    /=Pick Scrape
    .=Palm Mute
    
    Intro
    |------------------------|
    |------------------------|
    |-----------5------------|
    |-7----3----5----5-------|
    |-7----3----3----5-------|
    |-5----1---------3--/----|
    
    Intro…
  • INTRO
    G]--------------]
    D]-6-7-8-9------]
    A]-4-5-6-7------]
    E]----------7-0-]
    
    PART A
    G]---------------------5-4-------------------]
    D]---------4-5-----4-5-------5-9-8---5-------]
    A]-4-5-6-7-----6-7---------7-----------7-5-7-]
    E]-------------------------------------------]
    
    PART…
  • Tuning:EADGBE
    
    Intro
    e|---------------------------------------------------------------------------|
    B|---------------------------------------------------------------------------|
    G|---------------------------------------------------------------------------|
    D|---------------------------------------------------------------------------|
    A|-7-------------------7--------------------7------------------7-------------|
    E|-0-------------------0--------------------0------------------0-------------|…
  • INTRO
    e|--------------------------------------------------------------------|
    B|--------------------------------------------------------------------|
    G|------------------------7--9----------------------------------------|
    D|-7---7-7---7-7-7---7-7--7--9---x4-----------------------------------|
    A|-7---7-7---7-7-7---7-7--5--7----------------------------------------|
    E|-5---5-5---5-5-5---5-5----------------------------------------------|
    
    VERSE
    e|--------------------------------------------------------------------|
    B|--------------------------------------------------------------------|
    G|----------7-7-7-7--9-9-9-9-----------------7/9--9--------7-9-9-12-14|
    D|-7-7-7-7--7-7-7-7--9-9-9-9--7-7-7-7-x2--7--7/9--9--7--7--7-9-9-12-14|
    A|-7-7-7-7--5-5-5-5--7-7-7-7--7-7-7-7-----7--5/7--7--7--7--5/7-7-10-12|
    E|-5-5-5-5--------------------5-5-5-5-----5----------5--5-------------|
    PM................................
    
    PRE-CHORUS
    e|--------------------------------------------------------------------|
    B|--------------------------------------------------------------------|
    G|-----------7---------9----------------------------------------------|
    D|-7---------7--0-5-7--9--0-7-9----7-6-7------------------------------|
    A|-7--0-5-7--5---------7-----------7-6-7------------------------------|
    E|-5-------------------------------5-4-5------------------------------|
    PM...…
  • > MEANS STRUM
    
    INTROx4
    G]-------------------]
    D]-------------------]
    A]---------------5-7-]
    E]-5-5-5-5-5-5-5-----]
    
    VERSE
    G]---------------------]
    D]----------7>-7>------]
    A]----5>-7>-------5>-7>]
    E]-5>------------------]
    
    PART…
  • Tuning: EADGBe
    
    -INTRO chord: PALM MUTED
    e|------------------------------------------------|
    B|------------------------------------------------|
    G|----2-2-2-2-2-2-2-2-2-2-2-2-2-2-2-2-------------|
    D|----2-2-2-2-2-2-2-2-2-2-2-2-2-2-2-2-------------|
    A|----0-0-0-0-0-0-0-0-0-0-0-0-0-0-0-0-------------|
    E|------------------------------------------------|
    
    -COOL…
  • Standard-Tuning
    
    
    INTRO
    e|-----------------------------------------------------|
    B|-----------------------3---3---7---5--(5)--5---------|
    G|---4-/-3-/-4---6---3---4---4---5---5---7---5---------|
    D|---5-/-4-/-5---4---4---------------------------------|
    A|-----------------------------------------------------|
    E|-----------------------------------------------------|
    
    
    e|-----------------------------------------------------|
    B|-------------------------------8---7--(7)-(7)--------|
    G|---4-/-3-/-4---6---9---7---7---7--(7)--9---7---------|
    D|---5-/-4-/-5---7---7---7---7-------------------------|
    A|-----------------------------------------------------|
    E|-----------------------------------------------------|
    
    
    e|-----------------------------------------------------|
    B|-----------------------3---3---7---5--(5)--5---------|
    G|---4-/-3-/-4---6---3---4---4---5---5---7---5---------|
    D|---5-/-4-/-5---4---4---------------------------------|
    A|-----------------------------------------------------|
    E|-----------------------------------------------------|
    
    e|-----------------------------------------------------|
    B|-----------------------------------------------------|
    G|---4-/-3-/-4---6---7--/9-----------------------------|
    D|---5-/-4-/-5---7---7---------------------------------|
    A|-----------------------------------------------------|
    E|-----------------------------------------------------|
    
    
    Verse
    
    e|-----------------------------------------------------|
    B|-----------------------------------------------------|
    G|--7--------------------------------------------------|
    D|--7---5--4--2----7--5--4----9--7--5---7--------------|
    A|--5---5--4--2----7--5--4----9--7--5---7--------------|
    E|------3--2--0----5--3--2----7--5--3---5--------------|…
  • Tuning:EADGBE
    
    Intro
    
                  Riff A
    e|-----1---------------------------|-------------------------------|
    B|-------3-----1-------3-------1---|---2---2-----2-3-----------3---|
    G|---2-----------0-------3-------0-|-----2---2-------2-----------3-|
    D|-0---------2-------3-------2-----|-------------------2-----3-----|
    A|---------3-------1-------3-------|-0---------0---------0-1-------|
    E|---------------------------------|-------------------------------|…
  • INTRO
    
    G]------------------------------------------------------]
    D]--------9-9-7-5-----------7-7-5-------------------] 
    A]-5-5-9----------9-5--5-9---------9-7-5-----------]    
    E]------------------------------------------------------]
    
    VERSE
    G]-------------]…
  • > MEANS STRUM
    
    INTRO(repeat whole thing twice)
    G]-----------------]   [-----------------------]
    D]-----------------]x2 [-----------------------]
    A]-5-5-------------]   [-5-5-----------------5-]
    E]-----2-2-3-3-5-5-]   [-----2-2-3-3-5-5-3-3---]
    
    VERSE(repeat…
  • > MEANS STRUM
    
    INTRO OVER GUITAR        INTRO
    G]----7-6-79-]   [---------------------]
    D]-7---------]   [---------------2-4-6-]
    A]------------]   [---------2-2---------]
    E]------------]   [-5-5-2-2-----0-------]
    
    VERSE…
  • > MEANS STRUM
    
    INTRO:E
    
    VERSE
    G]-------------------------------------------]
    D]-------------------------------------------]
    A]-------7>-------------------2>----------2>-]
    E]-5>-7>----5>-7>-0>-5>-7>-2>----5>-4>-2>----]
    
    CHORUS
    G]----------]
    D]----------]
    A]-7>-------]
    E]----5>-7>-]
    
    VERSE
    CHORUS
    
    BRIDGE
    G]----------------------------]
    D]----------------------------]
    A]----------------------------]
    E]-7>-------------------7>-5>-]
    
    VERSE
    CHORUS…
  • >Means Strum
    
    INTROx2
    G]-----------------------------]
    D]-----------------------------]
    A]-----------------4-5-5-4-5-7-]
    E]-0-2-4-5-5-4-2-2-------------]
    
    VERSE
    G]-------------]
    D]-------------]
    A]-------5>----]
    E]-5>-2>----0>-]
    
    PRE-CHORUS
    G]-------------]
    D]-------------]
    A]-------5>-7>-]
    E]-5>-2>-------]
    
    CHORUS
    G]-------------------------------------------------------------------]
    D]------------------------------------------------6-7-7--------------]
    A]-5-5-4-5-7-7---------------7-9-7-5-5-4-5-7-7-9-------9-9-9------5-]
    E]-------------2-4-5-5-4-5-2----------------------------------2-2-2--]
    
    VERSE
    PRECHORUS
    CHORUS
    
    SOLO
    G]---------------------------------------------------------------
    D]---------7-6-7-6-9-7-6-----------------------9-----------------
    A]---4-5-7---------------9-9-9-9-7-10-10-7---9---9---------4-5-7-
    E]-5---------------------------------------7-------4-5-7-7-------
    
    -------------------------------------------------------------------------
    -----------------------------6-9-----------4-3-1-----------------6-6-7-7-
    ---7-5-4---0-2-4-5-4-2-0-7-9-------4-5-7---------5-4-2-4-7-7-9-9---------
    -5-------2-----------------------5-------2-------------------------------
    
    --------------------------------------------------------------------------
    --------------------------------------------------------------------------
    -5-5-5-5-7-5-5-4-4------------9-7-7-5-5-4-4-5-5-5-5-7-5-5-4-4-------------
    -------------------7-7-5-5-5-5--------------------------------7-7-5-5-5-5-
    
    ------------------------------------------------------------------------
    --------------------------6-7-7-7-7-6-7-9-7-6---------------------------
    ----/-9>--5---5---7---7-----------------------9-------4---4-5-7-7-7-5-5-
    -2-/--------5---5---7---7-----------------------7-5-7---7---------------
    
    ---------]
    ---------]
    -4-4-4---]
    -------7-]
    
    PRE-CHORUSx8
    
    OUTRO
    G]-------7--7-6-----]
    D]---/-7--------9-7-]
    A]-5----------------]
    E]------------------]…
  • Standard Tuning (EBGDAe)
    
    * - Strum
    
    |-----------------------------------------------------------------------------|
    |-----------------------------------------------------------------------------|
    |-----4--4----------4*--4-----------4*--4---2*--2-------2-3-4*----------------|
    |-2-4-4--4-6-2--2-4-4---4-6-2*--2-4-4---4-6-2---2-6-4*--2-3-4-----------------|
    |-2-4-2--2-6-2--2-4-2---2-6-2---2-4-2---2-6-0---0-6-4---0-1-2-----------------|
    |-0-2------4-0--0-2-------4-0---0-2-------4-------4-2-------------------------|
    
    |-----------------------------------------------------------------------------|
    |-----------------------------------------------------------------------------|
    |-----4*--4-----------4*--4-----------4*--4---2*--2-------2-3-4*--------------|
    |-2-4-4---4-6-2*--2-4-4---4-6-2*--2-4-4---4-6-2---2-6-4*--2-3-4---------------|
    |-2-4-2---2-6-2---2-4-2---2-6-2---2-4-2---2-6-0---0-6-4---0-1-2---------------|
    |-0-2-------4-0---0-2-------4-0---0-2-------4-------4-2-----------------------|
    
    |-----------------------------------------------------------------------------|
    |-----------------------------------------------------------------------------|
    |-----4*--4-----------4*--4-----------4*--4---2*--2-------2-3-4---------------|
    |-2-4-4---4-6-2*--2-4-4---4-6-2*--2-4-4---4-6-2---2-6-4*--2-3-4---------------|
    |-2-4-2---2-6-2---2-4-2---2-6-2---2-4-2---2-6-0---0-6-4---0-1-2---------------|
    |-0-2-------4-0---0-2-------4-0---0-2-------4-------4-2-----------------------|…
  • > THIS MEANS
    
    INTRO
    G]--------------] 
    D]--------------]
    A]-7>--------2>-]
    E]-----5>-2>----]
    
    SKA PART
    G]-----------------------]   [------------]
    D]-------6-7-7-6-------9-](x3[-----6-7-9>-]
    A]---7-9---------9-7-9---]…
Наверх