Аккорды «Hinder»

Hinder
Hinder — это американская рок-группа из Оклахомы, сформированная в 2001 году барабанщиком Кодом Хэнсоном, гитаристом Джои Гэрвеем и солистом Остином Уинклером. Группа является членом «Оклахомского музыкального музея славы» («Oklahoma Music Hall of Fame») с 2007 года. До создания группы Уинклер (родился 25 октября 1981 г.) играл в кавер-группе. Он писал свои собственные песни, но группа отказалась играть их. Затем он формирует группу Hinder с Кодом Хэнсоном. Вместе они пишут и исполняют песню… Читать полностью... Hinder — это американская рок-группа из Оклахомы, сформированная в 2001 году барабанщиком Кодом Хэнсоном, гитаристом Джои Гэрвеем и солистом Остином Уинклером. Группа является членом «Оклахомского музыкального музея славы» («Oklahoma Music Hall of Fame») с 2007 года. До создания группы Уинклер (родился 25 октября 1981 г.) играл в кавер-группе. Он писал свои собственные песни, но группа отказалась играть их. Затем он формирует группу Hinder с Кодом Хэнсоном. Вместе они пишут и исполняют песню «Lips of an Angel», которая в Billboard Hot 100 поднимается на 3 строчку. Остин продолжает писать основную массу треков вместе с Кодом. В апреле 2003 года, ещё до того группа стала популярной, группа приняла участие в конкурсе на радиостанции KHBZ-FM (94.7). Они вышли в финал вместе с четырьмя группами из тридцати двух, но в конечном счёте проиграли OKC группе Falcon Five-O. Они выпустили свой первый EP альбом под названием Far from Close в 2003 году под независимым лейблом Brickden Records. Альбом был выпущен в размере 5000 экземпляров. Три участника группы стали работать над новым материалом, чтобы в 2004 году выпустить снова независимый альбом. Их деятельность начала привлекать некоторые звукозаписывающие студии. Дебютный альбом Hinder - Extreme Behavior, вышедший в сентябре 2005, достиг платинового статуса за считанные недели, во многом благодаря успехам синглов – «Get Stoned» и «Lips of an angel». Очередным релизом группы стала песня «How Long». К данному моменту альбом «Extreme Behavior» достиг статуса трижды платинового. 4 ноября 2008 года группа выпускает свой второй альбом Take It To The Limit, записанный под руководством Brian Howes - это тот же продюсер, что записал «Extreme Behavior». 15 июля на всех ведущих радиостанциях Америки началась трансляция песни Use Me, которая добралась до #3 в US Mainstream Rock Tracks. В России песня появилась в эфире радиостанции Ultra в августе. Вторым синглом стала песня Without You. В конце 2010 года (9 декабря) был выпущен новый альбом «All American Nightmare» под лейблом «Universal Motown Group». Скрыть...
Популярные аккорды Hinder:
алфавиту | просмотрам | случайно
  • Drop D Tuning
    
    
    Intro/Verse
    e|-----------------------------------------------------|
    B|-----3---------------------------------------3-------|
    G|-2-2---2---2--4---4-------------7----------2---2---2-|x4
    D|-2-------2----4-4---4---4---7-7---7---7--0-------0---|
    A|-0------------2-------2-----5-------5----0-----------|
    D|----------------------------5------------0-----------|
    
    e|-------------------------------------------|
    B|-----3-------------------------------------|
    G|-2-2---2---2--4---4------------------------|
    D|-2-------2----4-4---4---4--7-7-7-7-7-7-7-7-|
    A|-0------------2-------2----5-5-5-5-5-5-5-5-|
    D|---------------------------5-5-5-5-5-5-5-5-|
    
    Pre…
  • Tuning: 1/2 step down from standard
    
    Intro: G - D - Bm - Asus4
    
    Verse:
    Bm
    Woke up with you back in my bed,
    G
    We broke up, how this happened again?
    Asus4
    I always end up letting you in
    Bm                     Asus4
    When…
  • A,G,D,A,A,G,D,F X2
    
           A           G
    Just a kid, just a fool
           D                    A
    Always trying to play it so cool
          A           G
    So he did what he knew
            D                          A
    He…
  • Intro: Am, G, F, Dsus2/A 
    
           Am           G  	    Am         F	    Am
    In the winding down hours,  I let your heart down again,
                 G  	              Am                    F
    (What'd I do to make a scene…
  • Tuning: E Standard
    
    Intro: Em G D A
    
    Em                          G
    I've never been so happy to see a girl leave
              D                          A
    Take your filthy little hands off my dirty ripped jeans
    Em…
  • Tuned a half-step down. (Eb, Bb, Gb, Db, Ab, and Eb). 
    
    (Now, for the verses, it's really just an A minor the whole time, but it sounds 
    good as well with the Am, F, G progression. That's how I play it.)
    
    Intro: Am,…
  • Standard Tuning
    
    Intro
    e|-----------------------------|
    B|-----------------------------|
    G|-7-7-5-5-5-3-3-3-3-5-5-5-7-7-|x3
    D|-7-7-5-5-5-3-3-3-3-5-5-5-7-7-|
    A|-5-5-3-3-3-1-1-1-1-3-3-3-5-5-|
    E|-----------------------------|
    
    Verse
    e|-------------------------------------------------------|
    B|-------------------------------------------------------|
    G|-7-7-7-7-7-7-7---------------5-5-5-5-5-5---------------|x3
    D|-7-7-7-7-7-7-7-3-3-3-3-3-3-3-5-5-5-5-5-5-5-5-5-5-5-5-5-|
    A|-5-5-5-5-5-5-5-3-3-3-3-3-3-3-3-3-3-3-3-3-5-5-5-5-5-5-5-|
    E|---------------1-1-1-1-1-1-1-------------3-3-3-3-3-3-3-|
    
    e|-------------------------------------|
    B|-------------------------------------|
    G|-5-5-5-5-3-3-3-3-5-5-5-7-7-7-7-7-7-7-|
    D|-5-5-5-5-3-3-3-3-5-5-5-7-7-7-7-7-7-7-|
    A|-3-3-3-3-1-1-1-1-3-3-3-5-5-5-5-5-5-5-|
    E|-------------------------------------|
    
    Chorus
    e|-----------------------------|
    B|-----------------------------|
    G|-7-7-5-5-5-3-3-3-3-5-5-5-7-7-|x3
    D|-7-7-5-5-5-3-3-3-3-5-5-5-7-7-|
    A|-5-5-3-3-3-1-1-1-1-3-3-3-5-5-|
    E|-----------------------------|
    
    Bridge
    e|----------------------------|
    B|----------------------------|
    G|--------------3-3-/1\3/1\-3-|
    D|-55\3/5-X-X-X-3-3-/1\3/1\-3-|
    A|-55\3/5-X-X-X-1-1-/3\1/3\-1-|
    E|-33\1/3-X-X-X---------------|
    
    e|----------------------------|
    B|----------------------------|
    G|------------3-33-3-/1\3/1\3-|x3
    D|-55\3/5-XXX-3-33-3-/1\3/1\3-|
    A|-55\3/5-XXX-1-11-1-/3\1/3\1-|
    E|-33\1/3-XXX-----------------|…
  • Intro
    e|-x-x------------------------------------------|
    B|-x-x------------------------------------------|
    G|-x-x-3-3-----5-5-5-5-3----3-3-----5-5-5-5-3---|
    D|-x-x-3-3-3-5-5-5-5-5-3-3--3-3-3-5-5-5-5-5-3-3-|
    A|-x-x-1-1-3-5-3-3-3-3-1-3--1-1-3-5-3-3-3-3-1-3-|
    E|-x-x-----1-3-----------1------1-3-----------1-|
    
    e|------------------------------------------|
    B|------------------------------------------|
    G|-3-3-----5-5-5-5-3----3-3-----5-5-5-5-3---|
    D|-3-3-3-5-5-5-5-5-3-3--3-3-3-5-5-5-5-5-3-3-|
    A|-1-1-3-5-3-3-3-3-1-3--1-1-3-5-3-3-3-3-1-3-|
    E|-----1-3-----------1------1-3-----------1-|
    
    
    Verse…
  • (Western Guitar Part)
    
    
    
    Intro
    
    E-----------------|
    B-----------------|
    G--7-7-7-7-7-7----| 4x
    D--7-7-7-7-7-7----|
    A--5-5-5-5-5-5----|
    E-----------------|
    
    
    
    (Part A)
    
    E--------0----------------0---------------0---------------0------------------------|
    B------3---3---3--------3---3---3-------3---3---3-------3---3---3------------------|
    G----2-------2--------2-------2-------2-------2-------2-------2--------------------|…
  • Tuning: D-Standard (DGCFAD)
    
    Intro-Riff:
    D|-------------------------------10--------------------|
    A|--12-13-10---12-13-13-13-12-13----13-12-10----10-----|
    F|-------------------------------------------12----9---|
    C|-----------------------------------------------------|
    G|-----------------------------------------------------|
    D|-----------------------------------------------------|
    
    Verse:
    
    Clean…
  • Intro
    e|-------------------------------------|
    B|-------------------------------------|
    G|-7-7-7-7--5-5-5-5--3-3-3-3-----------|x2
    D|-7-7-7-7--5-5-5-5--3-3-3-3--5-5-5-5--|
    A|-5-5-5-5--3-3-3-3--1-1-1-1--5-5-5-5--|
    E|----------------------------3-3-3-3--|
    
    Pre…
  • Drop D Tuning
    
    Intro
    Guitar 1
    e|--------------------------------------------------|
    B|-11----11----10----10----12----12----13----15-----|
    G|----12----12----12----12----12----12----12----12--|x2
    D|--------------------------------------------------|
    A|--------------------------------------------------|
    D|--------------------------------------------------|
    
    e|----------------------------------------------|
    B|-------------------------------10-11-10-------|
    G|-12-10----10-12-10----12-10-------------12-10-|x2
    D|-------12----------12-------12----------------|
    A|----------------------------------------------|
    D|----------------------------------------------|
    
    Guitar…
  • ---------- Capo on 2nd fret ----------
    
    
    Chords:
    E            022100
    A            x02220
    F#m          244222
    Ab           476454
    C#m          x46654
    B            x24442
    D            xx0232
    
    E
    My first make-out…
  • INTRO RIFF
           D
    e -----0-0-----2-2-----3-3-----2-2----------------------------| x2
    B -----3-3-----3-3-----3-3-----3-3----------------------------|
    G -----2-2-----2-2-----2-2-----2-3----------------------------|
    D…
  • Tuning: Standard 
    
    Pretty cool little song here. Nothing complicated at all. Possibly three 
    guitars in the mix on this one, but this song sounds really good alone on
    an acoustic.
    
    Key:
    /    = slide up
    \    = slide…
  • Intro:
    e I-13----15----16----15----13----15----13----15------|I
    b I----13----13----13----13----13----13----13----13---|I
    g I---------------------------------------------------|I
    d I---------------------------------------------------|I
    a…
  • INTRO: NONE
    
    VERSE:
     Gm
    Sick and tired of bleedin' for picking up the pieces
          F                               Gm
    So I let 'em fall down, let 'em fall down
     Gm
    Runnin' outta reasons to hold down the demon…
  • INTRO
    e----------------------------------------------------------------------------|
    b 1-1-1-1--3-----------------------------------------------------------------|
    g 0-0-0-0-2------------------------------------------------------------------|
    d…
  • Drop D Tuning
    
    
    Intro:
    e|--------------------------------|
    B|--------------------------------|
    G|----------5-5-5-5---------------|
    D|-7-7-7-7--5-5-5-5--5-5-5-5--3~--|
    A|-7-7-7-7--3-3-3-3--5-5-5-5--3~--|
    E|-7-7-7-7-----------5-5-5-5--3~--|
    
    
    Verse:
    e|-------------------------|
    B|-------------------------|2X
    G|---------5---------------|
    D|---7----5-5---5------3---|
    A|--7-7--3-----5-5----3-3--|
    E|-7----------5------3-----|
    
    
    e|------------------------------------------------------------------------|
    B|---5-5---5-5---3-3---1-1----5-5---5-5---3-3-----------------------------|
    G|----5-----5-----4-----2------5-----5-----4------------------------------|
    D|--7-----5-----5-----3------7-----5-----5-----3--3--33-333---5--5-555555-|
    A|---------------------------------------------3--3--33-333---5--5-555555-|
    E|---------------------------------------------3--3--33-333---5--5-555555-|
    
    Chorus:
    e|-----------------------------------|
    B|-----------------------------------|2X
    G|----------5-5-5-5------------------|
    D|-3-3-3-3--5-5-5-5--5-5-5-5-5-5-5-5-|
    A|-3-3-3-3--3-3-3-3--5-5-5-5-5-5-5-5-|
    E|-3-3-3-3-----------5-5-5-5-5-5-5-5-|
    
    
    e|-----------------------------------|
    B|-----------------------------------|
    G|---------5-5-5-5-------------------|
    D|-7-7-7-7-5-5-5-5-5-5-5-5-0-0-0-0---|
    A|-7-7-7-7-3-3-3-3-5-5-5-5-0-0-0-0---|
    E|-7-7-7-7---------5-5-5-5-0-0-0-0---|
    
    e|-----------------------------------|
    B|-----------------------------------|
    G|----------5-5-5-5------------------|
    D|-3-3-3-3--5-5-5-5--5-5-5-5-5-5-5-5-|
    A|-3-3-3-3--3-3-3-3--5-5-5-5-5-5-5-5-|
    E|-3-3-3-3-----------5-5-5-5-5-5-5-5-|
    
    
    e|-----------------------------------|
    B|-----------------------------------|
    G|----------5-5-5-5------------------|
    D|-7-7-7-7--5-5-5-5--5-5-5-5--3-3-3-3|
    A|-7-7-7-7--3-3-3-3--5-5-5-5--3-3-3-3|
    E|-7-7-7-7-----------5-5-5-5--3-3-3-3|
    
    e|--------------------------------|
    B|--------------------------------|
    G|----------5-5-5-5---------------|
    D|-7-7-7-7--5-5-5-5--5-5-5-5--3~--|
    A|-7-7-7-7--3-3-3-3--5-5-5-5--3~--|
    E|-7-7-7-7-----------5-5-5-5--3~--|
    
    e|-------------------------------------------------|
    B|---5-5---5-5---3-3---1-1----5-5---5-5---3-3--1-1-|
    G|----5-----5-----4-----2------5-----5-----4----2--|
    D|--7-----5-----5-----3------7-----5-----5----3----|
    A|-------------------------------------------------|
    E|-------------------------------------------------|
    
    e|------------------------------------------------------------------------|
    B|---5-5---5-5---3-3---1-1----5-5---5-5---3-3-----------------------------|
    G|----5-----5-----4-----2------5-----5-----4------------------------------|
    D|--7-----5-----5-----3------7-----5-----5-----3--3--33-333---5--5-555555-|
    A|---------------------------------------------3--3--33-333---5--5-555555-|
    E|---------------------------------------------3--3--33-333---5--5-555555-|
    
    Chorus:
    
    e|-----------------------------------|
    B|-----------------------------------|2X
    G|----------5-5-5-5------------------|
    D|-3-3-3-3--5-5-5-5--5-5-5-5-5-5-5-5-|
    A|-3-3-3-3--3-3-3-3--5-5-5-5-5-5-5-5-|
    E|-3-3-3-3-----------5-5-5-5-5-5-5-5-|
    
    
    e|-----------------------------------|
    B|-----------------------------------|
    G|---------5-5-5-5-------------------|
    D|-7-7-7-7-5-5-5-5-5-5-5-5-0-0-0-0---|
    A|-7-7-7-7-3-3-3-3-5-5-5-5-0-0-0-0---|
    E|-7-7-7-7---------5-5-5-5-0-0-0-0---|
    
    e|-----------------------------------|
    B|-----------------------------------|
    G|----------5-5-5-5------------------|
    D|-3-3-3-3--5-5-5-5--5-5-5-5-5-5-5-5-|
    A|-3-3-3-3--3-3-3-3--5-5-5-5-5-5-5-5-|
    E|-3-3-3-3-----------5-5-5-5-5-5-5-5-|
    
    Solo:
    
    e|---------------------------------------------------------|
    B|---------------------------------------------------------|
    G|--------------12------------------------12---------------|
    D|-----------------15-14-12~-----------------15-14---------|
    A|-12-15-15-12----------------12-15-15-12----------15------|
    E|---------------------------------------------------------|
    
    e|----------------------------------------------------|
    B|------------------------------------------------13~-|
    G|-------------12-------12b(14)r12-14-12----12-14-----|
    D|----------------15-14------------------14-----------|
    A|-12-15-15-12----------------------------------------|
    E|----------------------------------------------------|
    
    e|-------12-----------------------------------------------------------|
    B|-13-15---15-13-15-13\12-13-12--12-----------------------------------|
    G|-----------------------------14--14-12-14-12--12--------------------|
    D|--------------------------------------------15--15-14-15-14-12b(14)-|
    A|--------------------------------------------------------------------|
    E|--------------------------------------------------------------------|
    
    e|-----------------------------------------------------|
    B|-----------------------------------------------------|
    G|------------------------------15-14-15-14-15-14-12---|
    D|----12-12h14p12-----------------------------------15-|
    A|-15------------15-12-15-12---------------------------|
    E|-----------------------------------------------------|
    
    e|--------------------------------|
    B|-12'''''-13''''''-15'''''''-16~-|
    G|--------------------------------|
    D|--------------------------------|
    A|--------------------------------|
    E|--------------------------------|
    
    Chorus:
    
    e|---------------------------------|
    B|---------------------------------|6X
    G|----------8-8-8-8----------------|
    D|-6-6-6-6--8-8-8-8--8-8-8-8-8-8-8-|
    A|-6-6-6-6--6-6-6-6--8-8-8-8-8-8-8-|
    E|-6-6-6-6-----------8-8-8-8-8-8-8-|
    
    e|---------------------------------------------|
    B|---------------------------------------------|
    G|--------------8-8-8-8-----------10-10-10-10--|
    D|-10-10-10-10--8-8-8-8--8-8-8-8--10-10-10-10--|
    A|-10-10-10-10--6-6-6-6--8-8-8-8--8--8--8--8---|
    E|-10-10-10-10-----------8-8-8-8---------------|
    
    e|---------------------------------|
    B|---------------------------------|
    G|----------8-8-8-8----------------|
    D|-6-6-6-6--8-8-8-8--8-8-8-8-8-8-8-|
    A|-6-6-6-6--6-6-6-6--8-8-8-8-8-8-8-|
    E|-6-6-6-6-----------8-8-8-8-8-8-8-|
    
    e|---------------------|
    B|---------------------|
    G|-5~------5~---5------|
    D|-5~------5~--5-5--3~-|
    A|-3~------3~-------3~-|
    E|------------------3~-|…
  • Em                      Dsus2         C
      You're waitin' by the car as I pull in
    G                                Dsus2
      And this is where the ending begins
    Em                 Dsus2        C
      Lookin' like you made…
  • Verse (Play Twice)                                     x2               x1
    E--------------------------------------------------------|----------------|
    B--------------------------------------------------------|----------------|
    G--------------------------------------------------------|----------------|
    D-----------------------------3/5-5-5-5-5-5-5-5-5-5-5-5-5|-8-8-8-8-8-8-8-8|
    A-3/5-5-5-5-5-5-5-5-5-5-5-5-5-1/3-3-3-3-3-3-3-3-3-3-3-3-3|-6-6-6-6-6-6-6-6|
    E-1/3-3-3-3-3-3-3-3-3-3-3-3-3----------------------------|----------------|…
  • Standard Tuning
    
    Verse 1
    A (Asus2)
    I'm living life with no regrets
    G
    They're on their way but ain't here yet
    D (Dsus2)                     A(Asus2)
    I just left Las Vegas in bad, bad shape
    
    A
    I only call home if…
  • Tuning:Standard
    
    
    e|---------------------------------------------------------------------------|
    B|-4-4-4-4---------4-4-4-4---------------------------------------------------|
    G|-4-4-4-4---------4-4-4-4--1-1-1-1------------------------------------------|
    D|-6-6-6-6-2-2-2-2-4-4-4-4--2-2-2-2------------------------------------------|
    A|-6-6-6-6-2-2-2-2-2-2-2-2--2-2-2-2------------------------------------------|
    E|-4-4-4-4-0-0-0-0----------0-0-0-0------------------------------------------|
    
    That…
  • A                           F#m
    Talk to me, that's all she said to me, 
                 D                             A
     Now I just can't believe that she won't talk to me.
    
     A
    Love takes work and work takes time,
     F#m
    Sometimes…
  • Intro and Verse
    e|------------------------------------------------------|
    B|-----5---5-----5------5---5-----5------3---3---3--3-3-|
    G|------------------------------------------------------|X4
    D|---7---------7------5---------5------3---------3--3-3-|
    A|-5-----5---5------3-----3---3------1-----1---1-1--1-1-|
    E|------------------------------------------------------|
    
    Pre…
  • Am
    Because of you
    G
    Im so damn happy
    C
    'guess there's a God up there
    Em
    and he must be watchin over me
    
    
    Am
    I fell so Damn hard
    G
    and my first thoughts were
    C
    when she fell from above
    
    Em…
  • Standard tuning                                          F7M/A   = x03210
                                                               C#dim = x42020
    INTRO                                                      F7M   = 133210
    Am…
  • C#m B G#m A
    
    C#m               B                  G#m
     It's freaking me out, that I didn't see
                   A
    That you're so damn hot girl, It's just crazy
    C#m           B                   G#m
    And without a doubt…
  • Tuning: 1 step down  DGCFAD
    Intro: D-Gsus2-D-Gsus2
    D		Gsus2
    Now that it's morning,
    Gsus2              D                      Gsus2
    Where do you want to go from here?
    repeat: D – Gsus2
    D			Gsus2
    Well now that we're…
  • [Intro] x2
       Amadd9          Am (5.fret)        A5               Am
    e|--7--|----|----|--8-7-5----||    e|--0--|----|----|-----------||
    B|--5--|----|----|--------8--||    B|--0--|----|----|--1-0------||
    G|--5--|----|----|-----------||…
  • Tuning:standard
    
    This song was released on the second version of extreme behavior, it's a Bon Jovi cover
    
    
    update: Just fixed a couple of things with the chords that are being played.
    
    Intro
    e|----------1------------1----------1----------1------------------------------------|
    B|-3-3-3-----3---3-3-3----3----------1----------1-----------------------------------|
    G|-3-3-3------3--3-3-3-----3--2-2-2---2--2-2-2---2----------------------------------|
    D|-3-3-3---------3-3-3--------3-3-3------3-3-3--------------------------------------|
    A|-1-1-1---------1-1-1--------3-3-3------3-3-3--------------------------------------|
    E|----------------------------1-1-1------1-1-1--------------------------------------|
    
    
    Play…
  • Tuning: EADGBe
    Capo: On First fret.
    
         G       D       C
    
    e|---3---|---2---|---0---|
    B|---3---|---3---|---1---|
    G|---0---|---2---|---0---|
    D|---0---|---0---|---2---|
    A|---2---|---X---|---3---|
    E|---3---|---X---|---X---|
    *don't…
  • C#m/G# =  446654
    B =       799877
    A =       577655
    F#m =     244222
    E/B =     779997
    G# =      466544
    
    Much Better Then Me    ( Hender )
    
    Intro
    
    C#m/G#  B  A   SL - B   ( 2 X )                
    
    C#m/G#…
  • G     G  G
    someone is bad
       Bb   Bb   Bb
    someone is glad
       F     F   F
    someone is dead
       b#    b#     b#       b#    b#    b#
    someone is complaining about their life
       G      G   G   G 
    someone needs a life…
  •    E|------------------------|
       B|------------------------|
       G|------------------------|
       D|---0---2------0---2-----|     x2
       A|------------------------|
       e|-0---0------0---0-------|
  • -Intro
    
    Bm G A 
    
    Bm G A   Bb
    
    -Verse 1
    Bm 
    From everything I've seen,
    G                      A
    Everything good just goes away.
    Bm
    I never had a taste of
    G                      A               Bb /
    heaven without…
  • Standard Tuning
    
    Intro
    e|--------88--77-|
    B|-66--88--------|
    G|---------------|
    D|---------------|
    A|---------------|
    E|---------------|
    
    
    Guitar 1
    e|--------88--77--------88--77-|
    B|-----------------------------|
    G|-55--77--------55--77--------|x2
    D|-----------------------------|
    A|-----------------------------|
    E|-----------------------------|
    
    Guitar…
  • This is the rhythm for basically the whole song.
    ----------------------------------------|
    ----------------------------------------|
    ---------2h4p2--------------------------|
    -0-0-2h4-------4/0---------0-0h2p0------|
    -----------------------0h2---------3----|
    -------------------3-3------------------|
    
    1st…
  • Am, C, G, D standard tuning, capo on first fret.
    
    
    Am, C, G, D (x2)
    
    Am        C
    hopefully we can still laugh,
    G                   D
    like those times we had in the past,
    Am        C
    hopefully we can still play,…
  • Standard Tuning
    
    Intro
    e|---------------------------------|
    B|---------------------------------|
    G|-3-3-3-3-6-6-6-6-----------------|x2
    D|-3-3-3-3-6-6-6-6-3-3-3-3-6-6-6-6-|
    A|-1-1-1-1-4-4-4-4-3-3-3-3-6-6-6-6-|
    E|-----------------1-1-1-1-4-4-4-4-|
    
    
    Verse…
Наверх