Аккорды «Hoax»

Hoax
хардкор-панк из США ,штат Массачусетс. хардкор-панк из США ,штат Массачусетс. Скрыть...
Популярные аккорды Hoax:
алфавиту | просмотрам | случайно
  • Standard Tuning.
    
    Intro:
    
    G5    B#5   A5  A#5   A5
    
    Verse:
    
    The verse is the same chords as the intro, but each chord is
    only played once. 
    
    Chorus: Play the intro riff for the chorus.
    
    Solo:
    The solo on Hidden is also on…
  • Verse:
    
    B5                  G5     A5                    
    Finding a way...
    
    Chorus:
    
    G5         A5         B5      C#5
    
    All of the solo is played on the 1st string,
    (high E). (The solo is actually played on a second guitar.)
    
    e---7-7-7-7-7-7-7-5-7-7-7-7-7-7-7-5--|
    
    e---7-7-7-7-7-7-7-7-10-10-10-10-12-12-12--|
    
    e---7-7-7-7-7-7-7-5-7-7-7-7-7-7-7-5--|
    
    e---7-7-7-7-7-7-7-7-10-10-10-10-12-12-12-7--|
    
    
    Words:
    
    Finding…
  • E------------------------
    B------------------------
    G------------------------
    D------0-2-0-----4---5---
    A------------2-0-4---5---
    E----------------2-0-3---
    
    This riff carries on through the first verse leaving a gap for…
  • Standard tuning. High to low: (e-b-g-d-a-e)
    P=Pulloff
    
    Intro/Chorus:
    e-------------------------------------|
    b-------------------------------------|
    g-------------------------------------|
    d----2--2--2--------------------------|
    a----2--2--2--0--2p0------------------|
    e--------------------0-0-0-0-0-0-0-0--|
    
    Verse:
    
    e-------------------------|
    b-------------------------|
    g-------------------------|…
  • Standard tuning
    
    Intro: (Distortion)
    
        G#5         F#5        E5           F#5
    e---------------------------------------------------|
    b---------------------------------------------------|
    g---------4--3--------4--3--------4--3--------4--3--|
    d---6--6--------4--4--------2--2--------4--4--------|
    a---6--6--------4--4--------2--2--------4--4--------|
    e---4--4--------2--2--------0--0--------2--2--------|
    
    Verse:
    
    The…
  • Intro (& chorus):
    
    Slow- 
    
    C#   A   B   G   C#   A   B   G#  x2
    
    Verse:
    
    Carry on the intro riff.
    
    Bridge- Moderately fast:
    (All downstrums- Slight palm mute)
    
    C#                               B
    I'll always seek out the…
  • Verse Chords- D C A C (all bar chords in this sequence)
    
    Chorus chords- B A B A etc to a fast rhythym
                                                        Just ignore them....
    
    E-------0----------0-------------0------------------------------------------
    B----------0---0-0------0-----------0-----0--0------------------------------
    G--4---------0--------------4----------0------------------------------------
    D--2------------------------2-----------------------------------------------
    A---------------------------------------------------------------------------
    E---------------------------------------------------------------------------
    
    That…
  • Standard tuning.
    
    Verse:
    
    e|----------------------|
    b|----------------------|  Repeat until end of verse
    g|----4--4--4--7--7--7--|
    d|----4--4--4--7--7--7--|
    a|----2--2--2--5--5--5--|
    e|----------------------|
    It's always…
  • VERSE 1:
    
    B            D
    ON AND ON NO END IN SIGHT,
    
        A                E
    THE DUSTY ROAD KEEPS TURNING...
    
    CHORUS:
    
      G                   B          
    BECAUSE IT JUST WON'T STOP,
    
    D        A
    IT NEVER FADES...
    
    VERSE 2-…
  • Regular tuning.
    x- Palm Mute
    h- hammer on
    
    Intro:
    
    x B x E x A x D xx BB xx EE xx AA xx DD (play fairly slow, bend last D down)
    
    G5  F#5  A5  G#5
    
    Play first bit again before going straight into verse.
    
    Verse:
    
    B…
  • THIS SONG IS MADE UP OF VERY SIMPLE CHORDS WHICH ARE (TABBED IN THIS ORDER) G, D7, Am 
    C. THEN FOR THE CHORUS THEY ARE Em G D C AND A.
    
    E--3---1---0---0--------0---3---2---0---0-----------------|
    B--3---2---1---1--------0---3---3---1---2-----------------|
    G--0---1---2---0--------0---0---1---0---2-----------------|
    D--0---0---2---2--------2---0---0---2---2-----------------|
    A--2---0---0---3--------2---2---0---3---0-----------------|
    E--3---0---0---0--------0---3---0---0---0-----------------|
    
    On…
  • E-----------------------------------------------------------------------
    B-----------------------------------------------------------------------
    G-----------------------------------------------------------------------
    D-----------------------------------------------------------------------
    A---9---9---2---2---10---10---7---7---5---5---4---4---9---10---9--------
    E-7---7---0---0---8----8----5---5---3---3---2---2---7---8----7----------
    
    That…
  • Standard tuning.
    s- slide
    
    Intro:
    
    e|--------------------|--------------------|--------------------|
    b|--------------------|--------------------|--------------------|
    g|--------------------|--------------------|--------------------|
    d|--------------------|--------------------|--------------------|
    a|--------------------|--------------------|--------------------|
    e|--0--5--3--0--1--0--|--0--5--3--0--1--0--|--0--5--3--0--1--0--|
    
    e|--------------------------|
    b|--------------------------|
    g|--------------------------|
    d|--------------0-----------|
    a|--------0--3-----3--0-----|
    e|--0--3-----------------3--|
    
    Play…
  • Standard tuning. 
    P.M-Palm mute
    
    Intro:
    
    Riff A:
    
    A     E     D     G - Play twice through
    
    Riff A-B link:
    
    G5     A5     B5
    
    Riff B:
    
    C#5     D#5   C#5    B5- x2
    
    
    That's th intro:
    
    Verse One:
    
    Carry on straight from end…
Наверх