Аккорды «Hokus Pick»

Hokus Pick
Hokus Pick (или Hokus Pick Manouver) - христианская рок-группа, которая существовала с 1988 по 1999 год. Четверо участников группы - Russ Smith (вокал, гитара), Matt Pierrot (гитара, вокал), Dave Strilchuk (бас-гитара, вокал), Rick Colhoun (барабаны, вокал) встретились в Ванкувере (Канада). Hokus Pick (или Hokus Pick Manouver) - христианская рок-группа, которая существовала с 1988 по 1999 год. Четверо участников группы - Russ Smith (вокал, гитара), Matt Pierrot (гитара, вокал), Dave Strilchuk (бас-гитара, вокал), Rick Colhoun (барабаны, вокал) встретились в Ванкувере (Канада). Скрыть...
Популярные аккорды Hokus Pick:
алфавиту | просмотрам | случайно
  • Intro, verse:
    ------------
    ------------
    -9---7--7-7-
    ---7--------
    
    
    Chorus:
    -------------------------------------------------------
    -------------------------------------------------------
    -------------------------------------------------------
    -6-6----1-1----7-7----1-1----6-6----1-1----7-7---1-6-0-
    
    
    Outro:
    -----------------------
    -----------------------
    -9---7--7-7--9---77777-
    ---7-----------7-------…
  • Intro, outro:
    E|-00--00--00--00--4-5-7--00--00--00--0-0-0-0-|
    
    
    Verse:
    E|-00--00--00--00--4-5-7--00--00--00--00-|
    
    
    Between Verses:
    E|-55-3-1-0-5---55-3-1-0-5--00--00--00--00-|
    
    
    Chorus:
    E|-55-3-1-0-55-3-1-0-55-3-1-0-55-3-1-0-|
    
    E|-00--00--00--00-|
    
    E|-55-3-1-0-55-3-1-0-55-3-1-0-55-3-1-0-|
    
    E|-6-6-6-6--5-5-5-5--4-4-4-4--3-3-2-1-0-|
    
    
    Bridge1:
    E|-1--2--3---45--6--7---8-9-|
    
    
    After…
  • Intro, verse, during guitar solo:
    -------------------
    -------------------
    -------------------
    -5--5-3--3-2-2-3-5-
    
    
    Chorus:
    ----------------------------------------------
    ----------------------------------------------
    ----------------------------------------------
    -3--3-3--3-3--3--3-3-3-3----5--5-3--3-2-2-3-5-
    
    
    After…
  • Intro, verse:
    G-------------------------------
    D-------------0-----------------
    A--0--0--0--0--3-0--0--0--0-----
    E-3--3--3--3----3--3--3--3--1-2-
    
    
    Chorus:
    G--------------------------------------------------
    D--------------------------------0-----------------
    A-5-4-2-0--5-4-2-0----0--0--0--0--3-0--0--0--0-----
    E--------------------3--3--3--3----3--3--3--3--1-2-
    
    
    Bridge:
    G--------------------
    D---------------0----
    A---0--3-----0-----3-
    E-3-------3----------
    
    
    Outro:
    G-------------------------------
    D-------------0-----------------
    A--0--0--0--0--3-0--0--0--0-----
    E-3--3--3--3----3--3--3--3--1-2-
    
    G-------------------------------
    D-------------0-----------------
    A--0--0--0--0--3-0--0--0--0-----
    E-3--3--3--3----3--3--3--3--1-2-
    
    G-------------------------
    D-------------0-----------
    A--0--0--0--0--3--(0)hold-
    E-3--3--3--3----3---------…
  • Intro, verse:
    -------------------------------------------
    -------------------------------------------
    -------0-1-2-2-1-0-----0-1-2-2-1-0-----2-2-
    --2-2--------------2-2-------------0-0-----
    
    
    Pre-Chorus:
    -------------------------------------------------
    -------------------------------------------------
    --2-4----------2-4----------4-7----------2-2-2-2-
    -------------------------------------------------
    
    
    Chorus:
    --------------------------
    --1--1--------4--4--------
    --------2--2--------4--4--
    --------------------------
    Sometimes…
Наверх